Веселые Ребята – Не волнуйтесь, тетя: аккорды для гитары

Текст песни "Веселые Ребята – Не волнуйтесь, тетя" с аккордами для гитары

Вступление: 
   Dm                Gm7           C            Dm         A# C
e|-10----13-12-10----10-10---------------12-----10-10-13-10----
b|----10----------13-------11------13-13----13-----------------
g|----------------------------12-------------------------------
d|-------------------------------------------------------------
a|-------------------------------------------------------------
e|-------------------------------------------------------------
   Dm                Gm7           C            Dm         
e|-10----13-12-10----10-10---------------12-----10-10-13-10----
b|----10----------13-------11------13-13----13-----------------
g|----------------------------12-------------------------------
d|-------------------------------------------------------------
a|-------------------------------------------------------------
e|-------------------------------------------------------------

         Dm                  Gm7
В детстве очень давно помню шло одно кино
       A7                Dm A# C
Там забавная песенка звучала
        Dm                 A#         F
Вот прошло много лет этой песенки куплет
      Gm                     A7
Навсегда в память врезался мою
       Gm                         A7
И чтоб детство снова вспомнить я пою

Dm               Gm7
Ой напрасно тетя вы лекарство пьете
A#      A7         Dm A# A7
И все смотрите в окно ой ой
Dm                  Gm7
Не волнуйтесь тетя дядя на работе
A#       A7           Dm 
 А не с кем-нибудь в кино

Ой напрасно тетя вы так слезы льете
Муж ваш редкий семьянин
Так что не грустите и его простите
Ради ваших именин

Год за годом идет тетя дядю ждет и ждет
И дождаться сумеет ли не знаю
И никак не пойму вспоминаю почему
Этот в общем незатейливый сюжет
Ведь ни дяди у меня ни тети нет

Ой напрасно тетя вы лекарство пьете
И все смотрите в окно ой ой
Не волнуйтесь тетя дядя на работе
А не с кем-нибудь в кино

Ой напрасно тетя вы так слезы льете
Муж ваш редкий семьянин
Так что не грустите и его простите
Ради ваших именин

Проигрыш:
  Gm7                    Asus4/F Dm/F Gm7                  A7 A#7
e|---3-1-3-6-3--3-1-3-6-3-----1-------3-1-3-6-3--3-1-3-6-3--5--6--
b|-------------------------5h3-3----------------------------------
g|-------------------------------2--------------------------------
d|--------------------------------3-------------------------------
a|----------------------------------------------------------------
e|----------------------------------------------------------------

     D#m                  G#m7
Если дождь бьет в окно и ничуть мне не смешно
     A#7               D#m B C#
И припомнилась давняя обида
        D#m                   B            F#
Как спасательный круг мне бросает память вдруг
      G#m                      A#7
Тех безоблачных лет напев смешной
     G#m                   A#7
И тогда с улыбкой говорю я ой ой ой ой

D#m              G#m7
Ой напрасно тетя вы лекарство пьете
B      A#7         D#m B A#7
И все смотрите в окно ой ой
D#m                G#m7
Не волнуйтесь тетя дядя на работе
B       A#7            D#m 
 А не с кем-нибудь в кино

Ой напрасно тетя вы так слезы льете
Муж ваш редкий семьянин
Так что не грустите и его простите
Ради ваших именин

Заключение:
   D#m              G#m7           C#           D#m         B C#
e|-11----14-13-11----11-11---------------13-----11-11-14-11----
b|----11----------14-------12------14-14----14-----------------
g|----------------------------13-------------------------------
d|-------------------------------------------------------------
a|-------------------------------------------------------------
e|-------------------------------------------------------------
   D#m              G#m7           C#           D#m        
e|-11----14-13-11----11-11---------------13-----11-11-14-11----
b|----11----------14-------12------14-14----14-----------------
g|----------------------------13-------------------------------
d|-------------------------------------------------------------
a|-------------------------------------------------------------
e|-------------------------------------------------------------
   D#m              G#m7           C#           D#m         B C#
e|-11----14-13-11----11-11---------------13-----11-11-14-11----
b|----11----------14-------12------14-14----14-----------------
g|----------------------------13-------------------------------
d|-------------------------------------------------------------
a|-------------------------------------------------------------
e|-------------------------------------------------------------
   D#m              G#m7           C#           D#m        
e|-11----14-13-11----11-11---------------13-----11-11-14-11----
b|----11----------14-------12------14-14----14-----------------
g|----------------------------13-------------------------------
d|-------------------------------------------------------------
a|-------------------------------------------------------------
e|-------------------------------------------------------------
Важно! Чтобы посмотреть аппликатуру нужного аккорда к песне “Веселые Ребята – Не волнуйтесь, тетя“, просто наведите мышку/кликните на сам аккорд.

Видео/Клип на песню “Веселые Ребята – Не волнуйтесь, тетя”:

Нажмите на звезду, чтобы оценить!

Средняя оценка 0 / 5. Количество оценок: 0

Оценок пока нет. Поставьте оценку первым.

Подписаться
Уведомление о
guest
0 Комментарий
inline-комментарии
Посмотреть все комментарии
ПОПУЛЯРНЫЕ АККОРДЫ: