Синяя птица – Снег и лёд: аккорды для гитары

Текст песни "Синяя птица – Снег и лёд" с аккордами для гитары

Вступление:

......Bm...........G............Fm........B.......Bm..........B
F—8>9--7-5---4>5--4------4>5--4------------4-7-5-4-5-----
D----------------------------7----------------7-6-7------------------

......Bm..........G..............Fm.............B....Bm.......B
F—8>9--7-5---4>5--4-------7>10--9-7--5-4-5--------------
D-----------------------------7----------------------------7----------

Bm.........................................................Bm/F
Рано выпал снег в поле с проседью,
G...............F................B..........B7
Разлучил меня с рыжей осенью
............Fm................................Bm..............G 
До утра снег, снег, снег, а в душе лёд, лёд, лёд,
..............Fm...............B.............Bm......................B7 
Нежность губ, тихий взгляд унесла с собою осень...
Fm.....................Bm..............G         
Снег, снег, снег,   лёд, лёд, лёд...
.............Fm................B.......Bm  
Тихий взгляд, звук шагов, прощай!

Проигрыш: 
......Bm..........G.............. Fm.............B....Bm......B
F—8>9--7-5---4>5--4-------7>10--9-7--5-4-5--------------
D-----------------------------7----------------------------7----------

Фонари в ночи тени бросили,
Не найти зимой тропку к осени
На висках снег, снег, снег, в памяти силуэт,
Нежность губ, тихий взгляд закружил в метели этой...
Снег, снег, снег, 
Вот уже много лет...
Тихий взгляд, звук шагов, прощай!

Проигрыш: Bm   G  F  B  B7    Fm  Bm  G 
Fm  B  Bm  B7    Fm  Bm  G  Fm  B 

H------------------4>5-----------------------------4>5---------------4>5-
G--4>5-4-5-7----------7-5-4-5----4>5-4-5-7-------7-5-4-5-5----------
D--------------------------------------------------------------------------------
A-------------------------------------7------------------------------------------

C—5>6-5---------------4>5--------------------------------------------------
G------------7-4>5-7-5-------7-5--4-5-----4-5----7-5-4-5-7-5-7>9-----
D----------------------------------------------------------------------------------
A---------------------------------------------8-------7---------------------------

E----------10-----8-----8-----8-7--------8----7----7----8---------------------
H--5>6--------------6-----6---------------------------------10-----------------
G--------------10--------------------8>9----9----9----9-----------------------
D-----------------------------------------------------------------------------------

E--8---5--------------------------------
H--5-----8--5--------------------------
G---------------7-5-7-5-7-7>9------
D----------------------------------------

Переход на 1 тон (на 2 лада) выше (Cm)

Cm..........................................................Cm/B
Рано выпал снег в поле с проседью,
F....................B.................F..........C7
Разлучил меня с рыжей осенью
................Bm......................................Cm..........F....F/Gm 
До утра снег, снег, снег, а в душе лёд, лёд, лёд,
 ..................Bm...................Gm............Cm.........................C7
 Нежность губ, тихий взгляд унесла с собою осень...
Bm.........................Cm...........F......F/Gm
Снег, снег, снег,  лёд, лёд, лёд,
 Bm              Gm 
 Осень прошла...
Bm.......................................Cm...........F......F/Gm   
Снег, снег, снег, а в душе лёд, лёд, лёд,
....................Bm.................Gm..........Cm..........................C7
Нежность губ, тихий взгляд унесла с собою осень...
Bm........................Cm...........F......F/Gm         
Снег, снег, снег, лёд, лёд, лёд,
Bm...............Gm..........Cm6
Осень прошла... Прощай!
Важно! Чтобы посмотреть аппликатуру нужного аккорда к песне “Синяя птица – Снег и лёд“, просто наведите мышку/кликните на сам аккорд.

Видео/Клип на песню “Синяя птица – Снег и лёд”:

Нажмите на звезду, чтобы оценить!

Средняя оценка 0 / 5. Количество оценок: 0

Оценок пока нет. Поставьте оценку первым.

Подписаться
Уведомление о
guest
0 Комментарий
inline-комментарии
Посмотреть все комментарии
ПОПУЛЯРНЫЕ АККОРДЫ: