Северный Флот – Время любить: аккорды для гитары

Текст песни "Северный Флот – Время любить" с аккордами для гитары

Вступление 1:
  A#m                                 C#                                          A#m            
4)----------2/3----------5/6----------------------------------------------------------------2/3----------5/6-
5)-3-1--3-1-----3-1--3-1-----3-1--3-1--4-6-8-8-8-8-8-8--4-8--8-8-8--4-8--8-8-8-4---3-1--3-1-----3-1--3-1-----
             C#                            
4)--------------------------------------------
5)-3-1--3-1--4-6-8-8-8-8-8-8--4-8--8-8-8--4-8-

Вступление 2:
  A#m                                 C#                                          F#            
4)----------2/3----------5/6----------------------------------------------------------------2/3----------5/6-
5)-3-1--3-1-----3-1--3-1-----3-1--3-1--4-6-8-8-8-8-8-8--4-8--8-8-8--4-8--8-8-8-4---3-1--3-1-----3-1--3-1-----
            D#m                G#                            
4)----------------------------------------
5)-3-1--3-1--4-6-8-8-8-8-8-8--8-6-4-3-4-3-

Куплет:
A#m                     
И каждый шаг, и каждый миг 
F#                         
Все было в тоннах старых книг 
C# 
И каждый взмах крыла одних 
G#
Другим мешал легко и вольно дышать 
A#m
Мы долго ищем среди звезд 
F#
Ответы на простой вопрос 
D#m                   G#
Зачем нам быть? Куда бежать? 

Припев:
A#m                         C#
Рано или поздно мы станем лесной травой 
 F#                    D#m         G# 
Вытянемся вспять, как тонкая нить, тонкая нить 
A#m                      C# 
Отмеряют звезды то время пока живой 
     F#                   D#m            G#
Как время танцевать и время любить, время любить. 

Куплет:
A#m
И каждый взгляд и каждый вдох 
F#
Отныне как рубеж эпох 
C# 
И каждый кто вокруг - тот друг 
G#
Из всех сторон остался только восток 
A#m
И не ведешь ты больше бой 
F#
За мир, что создан не тобой 
D#m                  G# 
Когда в глазах твоих любовь. 

Припев:
A#m                         C#
Рано или поздно мы станем лесной травой 
 F#                    D#m         G# 
Вытянемся вспять, как тонкая нить, тонкая нить 
A#m                      C# 
Отмеряют звезды то время пока живой 
     F#                   D#m            G#
Как время танцевать и время любить, время любить.

Кода:
      A#m  C#
Время любить.
       F#  D#m G#
Время любить.
      A#m  C# 
Время любить
       F#  D#m G#
Время любить.
Важно! Чтобы посмотреть аппликатуру нужного аккорда к песне “Северный Флот – Время любить“, просто наведите мышку/кликните на сам аккорд.

Видео/Клип на песню “Северный Флот – Время любить”:

Нажмите на звезду, чтобы оценить!

Средняя оценка 0 / 5. Количество оценок: 0

Оценок пока нет. Поставьте оценку первым.

Подписаться
Уведомление о
guest
0 Комментарий
inline-комментарии
Посмотреть все комментарии
ПОПУЛЯРНЫЕ АККОРДЫ: