Руки Вверх – Алешка: аккорды песни

11

Вступление:

1:--------------------------------------------------------------------
2:--------------------------------------------------------------------
3:9--9--9--10--9--7--7--7--10--9--5--5--5--5-7-5--4--4--4-5--4-7--4--2
4:--------------------------------------------------------------------
5:--------------------------------------------------------------------
6:--------------------------------------------------------------------

Припев:

3:9-9-9-9-10-9-9-9-9-10-9-9-9-9-10-9-10-9-7-7-7-7-9-7-7-7-7-9-

3:7-7-7-7-9-7-10-7-5-5-5-5-5-7-5-5-5-5-7-5-5-5-5-7-5-7-5-9-5-4-

3:4-4-4-4-5-4-4-4-4-5-4-4-4-4-5-4-7-4-2-

Любишь ты Алешку больше, чем меня
О Лешке ты вздыхаешь зря  
Об Лешке все твои мечты
Только о Сереге позабыла ты  


И без Лешки жизнь твоя пуста  
Ты совсем еще наивна и чиста  
Наблюдаешь ты за ним издалека  
Только между вами слез  река


Припев:
Потому-что есть Алешка у тебя    
О Лешке ты вздыхаешь зря  
О Лешке все твои мечты
Только о Сереге позабыла ты


Не висит плакат мой дома на стене    
Ты уже не помнишь обо мне
И подружкам ты боишься рассказать
Как Алешку ты не хочешь потерять
И стоишь ты рядом в двух шагах
И не скроешь слезы на глазах  
Ты не знаешь как ты далека
Между вам снова слез река


Припев:
Потому-что есть Алешка у тебя    
О Лешке ты вздыхаешь зря  
О Лешке все твои мечты
Только о Сереге позабыла ты

Потому-что есть Алешка у тебя    
О Лешке ты вздыхаешь зря  
О Лешке все твои мечты


Финальный проигрыш (БАСом):

6: 0-3-4-5-

Аппликатуры аккордов для гитары на песню “Руки Вверх – Алешка”:

Видео/Клип на песню “Руки Вверх – Алешка”:

Песня “Руки Вверх – Алешка” на Яндекс.Музыка: