Тема из к/ф “Пираты Карибского моря”: аккорды песни

24

e------------------------------------------------
B------------------------------------------------
G------------------------------------------------
D----2-4-5-5-4-7-7-5-4-4-0-2-2-------------------
A------------------------------------------------
E------------------------------------------------

e------------------------------------------------
B------------------------------------------------
G------------------------------------------------
D----2-4-5-5-4-7-7-5-4-4-0-2---------------------
A------------------------------------------------
E------------------------------------------------

e------------------------------------------------
B------------------------------------------------
G------------------------------------------------
D----2-4-5-5-4-7-7-7-10-10-7-9-2-----------------
A------------------------------------------------
E------------------------------------------------

e------------------------------------------------
B------------------------------------------------
G------------------------------------------------
D----2-4-5-5-7-9-2-2-5-4-2-0-2-------------------
A------------------------------------------------
E------------------------------------------------

e------------------------------------------------
B------------------------------------------------
G------------------------------------------------
D----9-9-9-10-10-7-7-7-9-9-----------------------
A------------------------------------------------
E------------------------------------------------

e------------------------------------------------
B------------------------------------------------
G------------------------------------------------
D----9-9-9-10-10-7-5-4-2-------------------------
A------------------------------------------------
E------------------------------------------------

Аппликатуры аккордов для гитары на тему из к/ф “Пираты Карибского моря”:

Видео/Клип на тему из к/ф “Пираты Карибского моря”:

Тема из к/ф “Пираты Карибского моря” на Яндекс.Музыка: