Океан Эльзы – 911: аккорды для гитары

Текст песни "Океан Эльзы – 911" с аккордами для гитары

Вступ. Gm - 2 раза.
Gm
Ти моя остання любов, моя машина, моя машина.
Gm                               Bx.1
Ти и я напилися знов, моя єдина, на смак бензину й кави...
 Gm
День і ніч дихає час, а ми с тобою живемо двоє,
  Gm
Автомобіль буде у нас моє ти сонце!

Припев:
Fm Fm Bm
Я не один, і ти не одна, скільки людей, стільки машин.
Fm   Fm Bm
Ти не одна, я не один , мій телефон девять один оди-и-ин!

2 куплет.
Ти і я щаслива симЪя , бо ти машина, моя машина,
Може твій, а може твоя, моя  єдина, налий бензину й кави...
І хто не забув сьогодні до нас,
заходьте в гості, заходьте в гості,
Ставити фільм, може і нас , колись покажуть там...
Припев.

Bx.1
B|--------3---------1----1---1---1-|
C|------4----------1----1---1---1--|
F|----5-----------1---1----1---1---|
F|---------------------------------|
B|-3-------------------------------|
B|------------1--------------------|

Bx.2                     Bx.3
B|-----------         --------|
C|------3----         ------1-|
F|----4------         ----1---|
F|---4-------         --1-----|
B|-3---------         --------|
B|-----------         --1-----|
Важно! Чтобы посмотреть аппликатуру нужного аккорда к песне “Океан Эльзы – 911“, просто наведите мышку/кликните на сам аккорд.

Видео/Клип на песню “Океан Эльзы – 911”:

Нажмите на звезду, чтобы оценить!

Средняя оценка 0 / 5. Количество оценок: 0

Оценок пока нет. Поставьте оценку первым.

Подписаться
Уведомление о
guest
0 Комментарий
inline-комментарии
Посмотреть все комментарии
ПОПУЛЯРНЫЕ АККОРДЫ:
Adblock
detector