Николай Гринько – Наши на Луне: аккорды для гитары

Текст песни "Николай Гринько – Наши на Луне" с аккордами для гитары

Проигрыш: G,Gm7 - 3р
соло
E|------------------------15-------------------------|
B|------12-13-1515-15-15-15-1513-12-------|     7 раз
G|--------------------------------------|
D|-------------------------------------|
A|---------------------------------------|
E|--------------------------------------------|


G
Еще чуть-чуть и ты вырастешь, Маша 
Зуб вырастет новый, куда он денется 
Gm7
И станет вкусной не вкусная каша 
Хотя её вкус нифига не изменится 
G
такой парадокс, ты скоро поймешь это слово 
И много другого поймешь постепенно
Gm7
И звезды появятся снова и снова 
И наши пройдут по луне непременно 
Припев:
G
Станет мир светлей и краше 
G                                      C
Будет легче жить тебе и мне 
G                              G                               Gm7
Улыбаемся и машем видишь, Маша, наши а луне 
Проигрыш (2 раза)
Ты обязательно станешь смелой 
Честной и сильной, тебе понравится 
Больно другим никогда не делай 
Они и сами прекрасно справятся 
Помни, что много друзей не бывает 
Знай, что дорога страшна поворотами 
Плачь, если плохо - иногда помогает 
Не пей - я пробовал, это не работает 
Припев:
Рвется обычно не там, где тонко 
Воздуха больше с открытыми окнами 
Ездить быстро, слушать музыку громко 
Небо - синее, море - мокрое 
Решение - сразу, сцепление - плавно 
Рваное сердце ничем не замажешь 
И, кстати, деньги в жизни не главное 
Деньги не главное в жизни, Маша 
Припев:
соло:
E|-----------------15---------------15------------------------------------------|
B|------12-13-15-15--12-13-15---15----12-13-15---------12-13-15-----------------------|
G|---------------------------------------------------------14-12-------------14-12-----------------| 4 раза
D|-------------------------------------|
A|---------------------------------------|
E|--------------------------------------------|
Важно! Чтобы посмотреть аппликатуру нужного аккорда к песне “Николай Гринько – Наши на Луне“, просто наведите мышку/кликните на сам аккорд.

Видео/Клип на песню “Николай Гринько – Наши на Луне”:

Нажмите на звезду, чтобы оценить!

Средняя оценка 0 / 5. Количество оценок: 0

Оценок пока нет. Поставьте оценку первым.

Подписаться
Уведомление о
guest
0 Комментарий
inline-комментарии
Посмотреть все комментарии
ПОПУЛЯРНЫЕ АККОРДЫ: