Metallica – Nothing Else Matters: аккорды песни

27

E-------0-----|-------0-----|-------0-----|-------0---7-|
B-----0---0---|-----0---0---|-----0---0---|-----0---0---|
G---0-------0-|---0-------0-|---0-------0-|---0---------|
D-------------|-------------|-------------|-------------|
A-------------|-------------|-------------|-------------|
E-0-----------|-0-----------|-0-----------|-0-----------|

E-7-----------7p0------------------7---8---7h8s5---7-5p3s2-----|
B-----0------------0-----0---------0---0-----------------------|
G---------0-----------0--------0-------------------------------|
D--------------------------------------------------------------|
A--------------------------------------------------------------|
E-0----------------------0-------------------------------------|
                                            
E-...-------(2)---------2p0---------|-0---0---0-----------(1)----|
B--0--0-------5-------5-------|---------5-------5---5---|
G---------5---------------5---|-----5-----------5---5---|
D-----------------------------|-------------------------|
A-----0-----------------------|-0---------------0---2---|
E-----------------------------|-------------------------|
                                  
E-0(1)-----------3p0-----0---|-0-----------0h5p0-------0|
B-5-------5-------5---5---|-7-------7---------7p0-0h-|
G-5-----5---5-------5-5---|-7-----7---7--------------|
D-------------------------|--------------------------|
A-3---3---------------3---|-5---5--------------------|
E-------------------------|--------------------------|
  
E--(1)-----------12-------------0------|--------0-----|-------0-----|   ----------12 
B---12--12------0----------0---0----|------0---0---|-----0---0---|   12--12-----ФЛАЖОЛЕТ 
G---12-------------0-----0-------0--|----0-------0-|---0-------0-|   12----------
D-----------------------------------|--------------|-------------|   ------------
A-----------------------------------|--------------|-------------|   ------------
E-0--------------------0------------|-0------------|-0-----------|   ------------
                                  
E-------------7--------------(1/2(4-3-2)-7-------------(1/2)----------|
B-------------8-----------------7-----5---8-----------|
G-----------9-------------------7-----5-9-------------|
D---------9-------------------7-----5-------------9---|
A-------7-------------------5-----3-------------7-----|
E-0---------------------------0-----------------------|
                                   
E----------------7--------------------------------------|
B-----7-----5----8--------------7-----------5-----------|
G-----7-----5-9-----------------7-----------5-----------|
D---7-----5-------------9----------------7------------5-|
A-5-----3-------------7----------------5-----------3----|
E---------------0---------------------------------------|
                        
E-------------------------|-------0-----|-------0-----|
B-------0-----------4-----|-----0---0---|-----0---0---|
G-------4-----------4-----|---0-------0-|---0-------0-|
D---5-----------4---------|-------------|-------------|
A-------------2-----------|-------------|-------------|
E-3-----------------------|-0-----------|-0-----------|

САМ ТРЕК:

                                        
E-------------3-----0-------2-----3-----0-----------|               
B---------0-----------0-------------3-------3-------|         
G-----0-----------0-----0-0-------0-----------------|
D---------------------------0--0--------------------|
A---------------------------3-----------------------|
E-0---------------------------------3-2-------------|
 
E-------------3-----0-------2------------0-------------|
B---------0-----------0-----------3---------3----------|
G-----0-----------0-----0-----------2p0--------0-------|
D---------------------------0--0-----------------------|
A----------------------------3-------------------------|
E-0------------------------------------3-2-------------|
 
E-------------3-----0-------2-----3-----3-----------|
B---------0-----------0-------------3-------3-------|
G-----0-----------0-----0-0---------0---------------|
D---------------------------0--0--------------------|
A---------------------------3-----------------------|
E-0-------------------------------------------------|
                           
E--(1/2)-------3---2(1/2)-------2-----0-----0-----|-0-----------------|
B---------3---0---------0-------0---0---|---------0-------0-|
G-----0-------2----------2----0-------0-|-----0-------------|
D---------------------------------------|-------------------|
A-------------2-----2-------------------|-------------------|
E-3-------------------------0-----------|-0-----------------| 

So close no matter how far
couldn´t be much more from the heart
forever trusting who we are
and nothing else matters
never  opened myself this way
life  is ours, we live it our way
all  these  words I don´t just say
and nothing else matters
trust  I seek and I find in you
every  day  for us something new
open mind  for a different view
and nothing else matters


n-e-v-e-r   cared for what they do
n-e-v-e-r   cared for what they know
b-u-t   I   know

so close no matter how far
couldn´t be much more from the heart
forever trusting who we are
and nothing else matters


n-e-v-e-r   cared for what they do
n-e-v-e-r   cared for what they know
b-u-t   I   know

ПРОИГРЫШ

Never  opened myself this way
Life is ours, we live it our way
All these  words I don´t just say
And nothing else matters
trust  I seek and I find in you
every  day  for us something new
open mind  for a different view
and nothing else matters


n-e-v-e-r   cared for what they say
n-e-v-e-r   cared for games they play
n-e-v-e-r   cared for what they do
n-e-v-e-r   cared for what they know
a-n-d   I   know

Аппликатуры аккордов для гитары на песню “Metallica – Nothing Else Matters”:

Видео/Клип на песню “Metallica – Nothing Else Matters”:

Песня “Metallica – Nothing Else Matters” на Яндекс.Музыка:

Представленные аккорды на песню группы Metallica – “Nothing Else Matter”, а также приложенные к ним партитуры аккордов для гитары, помогут вам в её быстром и эффективном разучивании.

Если вы найдете какую-либо ошибку или захотите дополнить нашу публикацию, дайте знать об этом в комментариях или отправьте письмо на email. Заранее спасибо!