Mariangela Demurtas – Blinding Lights: аккорды для гитары

Текст песни "Mariangela Demurtas – Blinding Lights" с аккордами для гитары

https://www.facebook.com/Themurtas/videos/vb.112922845462690/698507270869767

Tab: piano arranged for guitar.

[Intro melody]
Let ring except when playing single notes of melody - 2nd half of bars 1 & 2,
bar 3.  But let the notes marked with an asterisk there ring.

   Fm                               Cm (sus4)
e|--------------------------------|----------------------------------|
B|---------9-----------8----------|---------------------8------------|
G|-10------10-----8-10--------8---|-10------10-----8-10----------8---|
D|-----10------10---------10------|--------------------------10------|
A|-8------------------------------|-----10------10--------10---------|
E|--------------------------------|-8--------------------------------|
                                                          *
   Eb                          Bb
e|-6-------------6-----------|-------------6----------|
B|---8---6---------8--6------|-6----------------9--8--|
G|----------8------------8---|----------7-------------|
D|-----8-------8-------------|-8-----8----------------|
A|-6-------------------------|----8-------------------|
E|---------------------------|-6----------------------|
   *   *       *

[Suggested picking pattern for other parts]
Vary the pattern, emphasise different high notes on beats 1 and 3,
try a sus4 on the Cm, add the high Bb on the last chord, etc.
This can be played for verse and chorus, pre-chorus and bridge can be strummed.

   Fm                            Cm                          Eb(sus2)   Eb            Bb
e|-----------------------------|---------------------------|------------------------|------------------------|
B|---------------9-------------|-------------8-------------|-6----------8-----------|-6-----------6----------|
G|-10--------10------------10--|-8--------8-------------8--|---------8-----------8--|----------7------8---7--|
D|------10------------10-------|-----10------------10------|-----8-----------8------|------8-----------------|
A|-8----------------8----------|----------------10---------|-6-------------6--------|----8-------------------|
E|-----------------------------|-8-------------------------|------------------------|-6----------------------|


[Intro]
Fm   Cm   Eb   Bb

[Verse 1]
                Fm
I've been tryna call
                Cm
I've been on my own for long enough
              Eb                      Bb
Maybe you can show me how to love, maybe
                      Fm
I'm going through withdrawals
               Cm
You don't even have to do too much
                Eb                      Bb
You can turn me on with just a touch, baby


[Pre-Chorus 1]
                 Fm
I look around and
                          Cm
Sin City's cold and empty
                            Eb
No one's around to judge me
                                Bb
I can't see clearly when you're go-o-one


[Chorus]
        Fm       Cm
I said, ooh, I'm blinded by the lights
    Eb                              Bb
No, I can't sleep until I feel your touch
        Fm       Cm
I said, ooh, I'm drowning in the night
    Eb                                   Bb
Oh, when I'm like this, you're the one I trust
          Fm
Hey, hey, hey


[Interlude] (play intro sim.)
(Fm)  Cm   Eb   Bb


[Verse 2]
                  Fm
I'm running out of time
                     Cm
'Cause I can see the sun light up the sky
             Eb                   Bb
So I hit the road in overdrive, baby


[Pre-Chorus 2]
  Fm                          Cm
Oh, the city's cold and empty
                            Eb
No one's around to judge me
                                Bb
I can't see clearly when you're go-o-one


[Chorus]
        Fm       Cm
I said, ooh, I'm blinded by the lights
    Eb                              Bb
No, I can't sleep until I feel your touch
        Fm       Cm
I said, ooh, I'm drowning in the night
    Eb                                   Bb
Oh, when I'm like this, you're the one I trust


[Bridge]
                 Fm
I'm just calling back to let you know
              Cm
I could never say it on the phone
           Eb              Bb
Will never let you go this time


[Chorus]
        Fm       Cm
I said, ooh, I'm blinded by the lights
    Eb                              Bb
No, I can't sleep until I feel your touch, hey, hey, hey
        Fm       Cm
I said, ooh, I'm blinded by the lights
    Eb                              Bb
No, I can't sleep until I feel your touch
Важно! Чтобы посмотреть аппликатуру нужного аккорда к песне “Mariangela Demurtas – Blinding Lights“, просто наведите мышку/кликните на сам аккорд.

Видео/Клип на песню “Mariangela Demurtas – Blinding Lights”:

Нажмите на звезду, чтобы оценить!

Средняя оценка 0 / 5. Количество оценок: 0

Оценок пока нет. Поставьте оценку первым.

Подписаться
Уведомление о
guest
0 Комментарий
inline-комментарии
Посмотреть все комментарии
ПОПУЛЯРНЫЕ АККОРДЫ:
Adblock
detector