Константин Ступин – Лед и Ветер: аккорды для гитары

Текст песни "Константин Ступин – Лед и Ветер" с аккордами для гитары

E |-------------------|----------------|-------------------------------------|
B |-------------------|----------------|-------------------------------------|
G |-------------------|----------------|-------------------------------------|
D |--5-----4-----2----|--4-----5--5----|--5-----4-----5-----4-----5--4-------|
A |-------------------|----------------|-------------------------------------|
E |-------------------|----------------|-------------------------------------|

----------------------|----------------------|-------------------|
----------------------|----------------------|-------------------|
----------------------|----------------------|-------------------|
--5--4--2--4--5--7----|--7--5--4--5--4--5----|--4-----2-----1----|
----------------------|----------------------|-------------------|
----------------------|----------------------|-------------------|

----------------------------------|-------------------------------------|
----------------------------------|--------------------------------1----|
----------------------------------|-----------------------------0-------|
--2-----4-----4--5--2-------------|--5--4--2--4-----2--0----------------|
--------------------2-------------|-----------------------3-------------|
--------------------0-------------|-------------------------------------|

-------------------------|----||
-------------------------|----||
-----------2-------------|----||
--------2-----------2----|----||
-----0--------------2----|----||
--0-----------2--3--0----|----||

или аккордами:

             C#m
Свет не падал с небес для меня,
               B                            Cm
И только древности тень как холод, как страх,
             C#m
Где-то там далеко умирает луна,
         B                   Cm
И мечты как пыль рассыпались в прах,
           B
В глубине веков, где остыл огонь,
              Gm
И только лёд на вершинах гор,
         C#m B C#m C#m B C#m B Gm C#m
лёд и ветер 

             C#m
Я о многом хотел спросить,
        B                    Cm
не кого-нибудь, а самих богов,
           C#m
но боги спят оборвав нить,
            B                            Cm
между светом и тьмой, между мной и тобой,
           B
в глубине веков, где остыл огонь,
              Gm
и только лёд на вершинах гор,
         C#m B C#m C#m B C#m B Gm C#m
лёд и ветер

             C#m
Свет не падал с небес для меня,
               B                            Cm
И только древности тень как холод, как страх,
             C#m
Где-то там далеко умирает луна,
         B                   Cm
И мечты как пыль рассыпались в прах,
           B
В глубине веков, где остыл огонь,
              Gm
И только лёд на вершинах гор,
         C#m B C#m C#m B C#m B Gm C#m
лёд и ветер
Важно! Чтобы посмотреть аппликатуру нужного аккорда к песне “Константин Ступин – Лед и Ветер“, просто наведите мышку/кликните на сам аккорд.

Видео/Клип на песню “Константин Ступин – Лед и Ветер”:

Нажмите на звезду, чтобы оценить!

Средняя оценка 0 / 5. Количество оценок: 0

Оценок пока нет. Поставьте оценку первым.

Подписаться
Уведомление о
guest
0 Комментарий
inline-комментарии
Посмотреть все комментарии
ПОПУЛЯРНЫЕ АККОРДЫ: