Фруктовый кефир – Это я тебя люблю: аккорды для гитары

Текст песни "Фруктовый кефир – Это я тебя люблю" с аккордами для гитары

A Dm
Танцевали солнце с морем
Солнце море обжигало
И тогда стиснялось море
И ночами исчезало 

Припев:
A Dm
Это я тебя люблю Это мой секрет
Это моя тайна
Если я тебя люблю ты не скажешь нет
нананайна

В небе звезды в небе знаки
Не ушли и не остались
Чтобы мы с тобой о всяких
Неприличностях шептались

Припев.

Проигрыш: G Gbm F Em

Припев.

Вступление:
                                1-------  2---------
-----------------------------------------||----------
---------------------------------6--5-3-*||----------
-6---6-----------7-----6---6-------------||----------
-5-5---5---3-5/7---7---5-5---5---3--5-3--||-3-3-3-3-3
-0---------5-----------0---------5--3-2-*||-0-0-0-0-0
-----------------------------------------||----------

играется с вариациями:
-------------------5-5----------
-------5-7-----------------0----
-0h6-7-----6---6-5-------5---5--
-------------7---0--------------
-0------------------------------
--------------------------------

Куплет - обыгрываются 2 аккорда:
-9---10------
-10--10------
-9---10------
-11--12------
-------------
-------------

Припев в принципе то же что и вступление CODE:
                               1-------  2---------
-----------------------------------------||----------
-----------3-------5-------------6--5-3-*||----------
-6---6-----------7-----6---6-------------||----------
-5-5---5---3-5/7-------5-5---5---3--5-3--||-3-3-3-3-3
-0---------5-----------0---------5--3-2-*||-0-0-0-0-0
-----------------------------------------||----------
Важно! Чтобы посмотреть аппликатуру нужного аккорда к песне “Фруктовый кефир – Это я тебя люблю“, просто наведите мышку/кликните на сам аккорд.

Видео/Клип на песню “Фруктовый кефир – Это я тебя люблю”:

Нажмите на звезду, чтобы оценить!

Средняя оценка 0 / 5. Количество оценок: 0

Оценок пока нет. Поставьте оценку первым.

Подписаться
Уведомление о
guest
0 Комментарий
inline-комментарии
Посмотреть все комментарии
ПОПУЛЯРНЫЕ АККОРДЫ: