Эпидемия – Вернись: аккорды для гитары

Текст песни "Эпидемия – Вернись" с аккордами для гитары

альбом «Дорога домой», 2010
муз. и сл. Ю. Мелисов
темп 65 bpm, размер 4/4

Вступление:

	1.-------2---------|-------2----------|-------2---------|-------2----------|
	2.-----0-----------|-----0-----0---0-|-----0-----------|-----0-----0---0-|
	3.---3-------------|---3---------3----|---3-------------|---3---------3---|
	4.------------------|------------------|------------------|------------------|
	5.------------------|------------------|------------------|------------------|
	6.-2---------------|-2----------------|-2---------------|-2----------------|
											   } 2 раза
	1.-------2---------|-------2----------|------------------|----------|-12--------------||
	2.-----0-----------|-----0-----0---0-|-----0-------0---|-----0---|-----12----------||
	3.---3-------------|---3---------3----|---3-------3-----|---3-----|------------------||
	4.------------------|------------------|-------------------|----------|-флажолеты-||
	5.------------------|------------------|-------------------|----------|-----------------||
	6.-0---------------|-0----------------|-4-------2--------|-0-------|-----------------||

	1.-------------0----|-------------0----|-------------0-----|-------------0----|
	2.-3-----2----------|-3-----2---------|-3-----2----------|-3-----2----------|
	3.---4-----2-----2-|---4-----2-----2-|---4-----2-----2-|---4-----2-----2--|
	4.-----4-----2------|-----4-----2-----|-----4-----2------|-----4-----2------|
	5.-2-----0----------|-2-----0---------|-2-----0----------|-2-----0----------|
	6.-------------------|------------------|--------------------|-------------------|

	1.--------------------|--------------------|--------------------|--------------------|
	2.---4---------------|---4----------------|---4---------------|---4----------------|
	3.-----6---4h6---6-|-----6---4h6---6-|-----6---4h6---6-|-----6---4h6---6-|
	4.-------6-----6-----|-------6-----6-----|-------6-----6----|-------6-----6-----|
	5.-4------------------|-4-----------------|-4-----------------|-4-----------------|
	6.--------------------|--------------------|--------------------|--------------------|

Куплет 1:
	   Bmsus2            Bsus2             Bmsus2           Bsus2
	1.--------------------|-------------------|--------------------|------------------|
	2.---4---------------|-------0-----------|---4---------------|-------0----------|
	3.-----6---4h6---6-|-----4-----4---4-|-----6---4h6---6-|-----4-----4---4-|
	4.-------6-----6-----|---2---------2----|-------6-----6----|---2---------2----|
	5.-4-----------------|-0-----------------|-4-----------------|-0----------------|
	6.--------------------|-------------------|--------------------|------------------|

	   Bmsus2            Bsus2             Bmsus2           Bsus2
	1.--------------------|-------------------|--------------------|------------------|
	2.---4---------------|-------0-----------|---4---------------|-------0----------|
	3.-----6---4h6---6-|-----4-----4---4-|-----6---4h6---6-|-----4-----4---4-|
	4.-------6-----6-----|---2---------2----|-------6-----6----|---2---------2----|
	5.-4-----------------|-0-----------------|-4-----------------|-0----------------|
	6.--------------------|-------------------|--------------------|------------------|

	   B/Fm              G#m             B
	1.-------------------|------------------|-0---------------|
	2.-------0----------|-------2----------|-0---------------|
	3.-----4-----4---4-|-----2-----2---2-|-1---------------|
	4.---2---------2----|---4---------4---|-2---------------|
	5.-------------------|------------------|-2---------------|
	6.-4----------------|-2----------------|-0---------------|

	   B
	1.-4-----2-----0---|-4-----2-----0---|
	2.---2-----2-----2-|---2-----2-----2-|
	3.-----2-----2------|-----2-----2-----|
	4.-------------------|------------------|
	5.-0-----------------|-0---------------|
	6.-------------------|------------------|

	    G#m  F#m     B       C         G#m   F#m      B      C
	1.-2-------4--------|-5-------7--------|-2-------4---------|-5-------7-------|
	2.-----2-------4----|-----5-------7----|-----2-------4-----|-----5---7-------|
	3.---2---2---4---4-|---6---6---8---8-|---2---2---4---4-|---6---6-8-------|
	4.-------------------|--------------------|-------------------|-----------9-------|
	5.-------------------|--------------------|-------------------|-----------9-------|
	6.-2-------4--------|-5-------7--------|-2-------4---------|-5--------7-------|
 
	Bmsus2             Bsus2
	Ты писала мне «вечность» –
	Bmsus2             Bsus2
	Я читал между строк.
	Bmsus2              Bsus2
	Ты сказала мне «нежность» –
	Bmsus2             Bsus2
	Я услышать не смог.
	     B/Fm      G#m       B     B
	И теперь я остался один.

Связка:
	     G#m    F#m         B           C
	Я остался один, а вокруг пустота,
	          G#m   F#m    B           C
	Только чей-то голос тихо шептал.

Куплет 2:
	Bmsus2             Bsus2
	Пусть я сам виноват –
	Bmsus2          Bsus2
	Я наказан сполна.
	Bmsus2              Bsus2
	Только грома раскат,
	Bmsus2         Bsus2
	А потом тишина.
	      B/Fm   G#m          B     B
	Я остался один в тишине.

Связка:
	     G#m    F#m         B           C
	Я остался один, а вокруг пустота,
	          G#m   F#m    B           C
	Только чей-то голос тихо шептал.

Припев (2 раза):
	B#m          B
	Вернись назад,
	       G#m                          B       C
	Впереди ничего, лишь бескрайний ад.
	    B#m         B
	Вернись ко мне,
	          G#m                    B         C           B#m
	Что ты делаешь в этой всеми забытой стране?

Проигрыш:
	|B#m	|B	|G#m	|B    C	|
	|B#m	|B	|G#m	|B    C	|
	|B#m	|B	|G#m	|B    C	|
	|B#m	|B	|G#m	|B    C	|

	|B#m	|B	|B#m	|B	|
	|B#m	|B	|B#m	|B	|
	|B/Fm	|G#m	|B	|
	|B	|B	|

Связка:
	     G#m     F#m        B           C
	Я остался один, а вокруг пустота,
	           G#m   F#m   B           C
	Только чей-то голос тихо шептал.

Припев (несколько раз):
	B#m          B
	Вернись назад,
	       G#m                          B       C
	Впереди ничего, лишь бескрайний ад.
	     B#m        B
	Вернись ко мне,
	          G#m                   B          C           B#m
	Что ты делаешь в этой всеми забытой стране?
Важно! Чтобы посмотреть аппликатуру нужного аккорда к песне “Эпидемия – Вернись“, просто наведите мышку/кликните на сам аккорд.

Видео/Клип на песню “Эпидемия – Вернись”:

Нажмите на звезду, чтобы оценить!

Средняя оценка 0 / 5. Количество оценок: 0

Оценок пока нет. Поставьте оценку первым.

Подписаться
Уведомление о
guest
0 Комментарий
inline-комментарии
Посмотреть все комментарии
ПОПУЛЯРНЫЕ АККОРДЫ: