Ария – Кто Ты?: аккорды для гитары

Текст песни "Ария – Кто Ты?" с аккордами для гитары

1-Й КУПЛЕТ:
E|-------------------------------|
B|-------------------------------|
G|-2-----0-----0-----------------|
D|---4-----2-----2--4-----4-2----|
A|--------------------5------3-3-|
E|-----0-----0----------0-----0--|
   сно -  ва   в пол -   ночь

E|--------------------------------------|
B|--------------------3----1----3---1---|
G|-2-----0----0-------4----2----4---2---|
D|---4-----2----2-----------------------|
A|----------------------0----0----0---0-|
E|------0----0--------------------------|
     слы -  шу       чей- то  го-лос

E|---------------------------------------|
B|---------------------------------------|
G|-2-----0-----0------------------2------|
D|---4-----2-----2--4-----4-2-------4----|
A|--------------------5------3-3---------|
E|-----0-----0----------0-----0--------0-|
   шеп - чет        и - мя        ма - нит

E|---------------------------0--------|
B|-0----0-----3---1---0-------0-0-----|
G|--0----0----4---2---0---2----0------|
D|------------------------3-------452-|
A|------------------------------------|
E|-----0-------0---0---0---0----------|
        и  зо- вёт ме - ня

E|---------------------------------|
B|-8-----7-----7---5-----4-----4---|
F|---9-----8-----8---5-----5-----5-|
D|---------------------------------|
A|-----0-----0---------0-----0-----|
E|---------------------------------|
и  бе- лым     ту- ма- ном

E|-----------------0-------------------|
B|-1-----4-------4---4-----------------|
G|---2-----5---5-----------------------|
D|---------------------5---5-4-2-1-----|
A|-----0-----0---------------------3-2-|
E|-------------------------------------|
    на стё-клах чей - то вздох оставлен

E|-------------------------------------|
B|-8-----7-----7---5-----4-----4---1---|
G|---9-----8-----8---5-----5-----5---2-|
D|-------------------------------------|
A|-----0-----0---------0-----0---------|
E|-------------------------------------|
   и  гас-нет   вдруг пла-мя

E|-------------0---3-----2-------------|
B|---4-------4---4---5-----4-----------|
G|-----5---5-----------5---------------|
D|---------------------------5-4-------|
A|-0-----0-----------------------3-2---|
E|-----------------------------------3-|
    хотя   нет  вет -  pа

E|-------------------------------|
B|-------------------------------|
G|-2-----0-----0-----------------|
D|---4-----2-----2--4-----4-2----|
A|--------------------5------3-3-|
E|-----0-----0----------0-----0--|
   ви - жу        тень   я

E|----------------------------------0--------|
B|--------0---0------3---1---0-------0-0-----|
G|--2-------0--0-----4---2---0---2----0------|
D|----4--------------------------3-------452-|
A|-------------------------------------------|
E|------0-----0-------0---0---0---0----------|
   кто - то     в  чёp-ном  y   ок-на

ПРИПЕВ:
   Gm        C       B
 Кто ты - наказанье или милость?
 Кто ты? Отрекаться не спеши.
 Может за душой моей явилась...
  Gm
 Только нет души.
2-Й КУПЛЕТ:
 Проклят, брошен, словно камень с неба.
 Страшно падать, только ждать ещё страшней.
 Всё помнить и жаждать любви, но быть распятым ею
 И мчаться к безумью, услышав голос...
 Ровно в полночь снова тень идёт ко мне.
ПРИПЕВ.
Важно! Чтобы посмотреть аппликатуру нужного аккорда к песне “Ария – Кто Ты?“, просто наведите мышку/кликните на сам аккорд.

Видео/Клип на песню “Ария – Кто Ты?”:

Нажмите на звезду, чтобы оценить!

Средняя оценка 0 / 5. Количество оценок: 0

Оценок пока нет. Поставьте оценку первым.

Подписаться
Уведомление о
guest
0 Комментарий
inline-комментарии
Посмотреть все комментарии
ПОПУЛЯРНЫЕ АККОРДЫ:
Adblock
detector