0oopsie – последний поклон: аккорды для гитары

35

Текст песни "0oopsie – последний поклон" с аккордами для гитары

ПОКАЗАТЬ/СКРЫТЬ АККОРДЫ
Капа на 3 ладу.

Вступление и куплеты:

---------------------------------------------------------------------------------------
---------------------------------------------------------------------------------------
---------------------------------------------------------------------------------------
-----0---------0---------0-----------0-------------0--------0----------0---------0-
---------------------------------------------------------------------------------------
--3----------3---------3----------3-----------2-----------2----------2--------2----

---------------------------------------------------------------------------------------
---------------------------------------------------------------------------------------
---------------------------------------------------------------------------------------
-------0---------0-------0-------0--------0---------0--------0---------0-----------
-------------------------------------------3---------3--------3--------3-------------
--0---------0--------0--------0------------------------------------------------------


G D Em C

G
Каменный пол, свист каблука 
D
Я безнадёжно влюблён. 
Em
Темная ночь где-то одна 
C
Ты - мой последний поклон. 

G
Это как лёд, ровная сталь 
D
Сердце - загадка времён. 
Em
Не убежать, проще кричать: 
C
"Я безнадёжно влюблён!" 


Припев 2 раза:

G                              
Бьются часы, словно живут 
D
Вечности наперекор. 
Em
- Я не боюсь, пусть все поймут 
C
Ты - мой последний поклон.


G
Звук от души словно хрусталь. 
D
Ты завела граммофон. 
Em
Только бы вальс этот для нас 
C
Не оказался сном. 


Припев 2 раза:

G                              
Бьются часы, словно живут 
D
Вечности наперекор. 
Em
- Я не боюсь, пусть все поймут 
C
Ты - мой последний поклон.

Важно! Чтобы посмотреть аппликатуру нужного аккорда к песне “0oopsie – последний поклон“, просто наведите мышку/кликните на сам аккорд.


Видео/Клип на песню “0oopsie – последний поклон”:

Нажмите на звезду, чтобы оценить!

Средняя оценка / 5. Количество оценок:

Оценок пока нет. Поставьте оценку первым.

Подписаться
Уведомление о
guest
0 Комментарий
inline-комментарии
Посмотреть все комментарии