Военные, армейские песни – Не плачь: аккорды для гитары

0

Текст песни "Военные, армейские песни – Не плачь" с аккордами для гитары

ПОКАЗАТЬ/СКРЫТЬ АККОРДЫ
Проигрыш:
E|-7-----------5----------------------------------------------|
B|-------5-----------5-----8-----5-----7--8--7--5--1-----1----|
G|----0-----0-----0-----0-----0-----0-----------------2-----2-|
D|------------------------------------------------------------|
A|-7-----------------------------------------------0----------|

E|-3-----------0-----------0-----------5-----------7----------|
B|-------1-----------1-----------1-----------5-----------5----|
G|----2-----2-----2-----2-----2-----2-----5-----5-----5-----5-|
D|------------------------------------------------------------|
A|-------------------------------------0----------------------|

E|-8-----------7--8--7--5--0-----------0--------------------2-|
B|-------5-----------------------0-----------0--1-----0-------|
G|----5-----5-----------------0-----0-----0--------2-----2--0-|
D|-------------------------2----------------------------------|
A|----------------------------------------------3-------------|

Em                          Am
Я помню только боль, и тишина,
  D                       Em
Упало от свинца на землю тело,
    Em                       Am
Ну, а кругом гремела все война,
     D                   Em
И в небеса душа моя взлетела.

Заплакала моя родная мать,
Упали слезы на страницы жизни,
Пока ей это трудно так понять,
Что сын не мёртв, что он живет в отчизне.

Припев:
         Am       D           Em
    Не плачь, прошу тебя, не плачь,
       Am     D             Em
    Я жив и здесь сейчас у Бога,
         Am   D            Em
    Не плачь, обо мне не плачь,
         Am          D          Em
    Нет места лучше Божьего чертога.

Пусть мало на земле я так прожил,
Пусть мало сделал дел, что были в планах.
Я многое уже здесь позабыл,
О той войне, о боли и о ранах.

Вы лучше плачьте о самих себе,
Из ада в ад попасть ведь так не сложно,
Просите Господа в своей мольбе,
Чтобы попасть на небо было можно.

Припев.
Важно! Чтобы посмотреть аппликатуру нужного аккорда к песне “Военные, армейские песни – Не плачь“, просто наведите мышку/кликните на сам аккорд.

Видео/Клип на песню “Военные, армейские песни – Не плачь”:

Нажмите на звезду, чтобы оценить!

Средняя оценка / 5. Количество оценок:

Оценок пока нет. Поставьте оценку первым.

Подписаться
Уведомление о
guest
0 Комментарий
inline-комментарии
Посмотреть все комментарии