Сплин – Бонни и Клайд: аккорды песни

30

Вступление:

E|-----------0---|------------0---|-3-1---0---1---3---1----0---1------|----------0---|
B|----1----------|----0h1---------|---------------------------------3-|----1---------|
G|---0-----0---0-|---2----2-----2-|-----2---2---2---2----2---2----2---|---0----0---0-|
D|--2----2-------|--2-------2-----|-0-----0---0---0---0----0---0------|--2---2-------|
A|-3-------------|-0--------------|-----------------------------------|-3------------|
E|---------------|----------------|-----------------------------------|--------------|

E|-----------0---|----0h1-----0h1---|----0h1-----1---|
B|---0h1---------|---3----3-------3-|---3----3-----3-|
G|--2----2-----2-|--2-------2-------|--2-------2-----|
D|-2-------2-----|-0----------------|-0--------------|
A|0--------------|------------------|----------------|
E|---------------|------------------|----------------|

Основная часть:

E|----------0----|------------0---|----0h1-----1---|----0h1-----1-----|
B|----1----------|----0h1---------|---3----3-----3-|---3----3-----3---|
G|---0----0---0--|---2----2-----2-|--2-------2-----|--2-------2-------|
D|--2---2--------|--2-------2-----|-0--------------|-0----------------|
A|-3-------------|-0--------------|----------------|------------------|
E|---------------|----------------|----------------|------------------|

Никому не доверяй   наших самых  страшных тайн,
Никому не говори,   как мы умрем.

В этой книге между строк спрятан настоящий Бог,
Он смеется, он любуется тобой

Ведь ты красива, словно взмах волшебной палочки в руках
Незнакомки из забытого мной сна.

Мы лежим на облаках, а внизу  бежит река, } – 2 раза
Нам вернули наши пули все сполна…


Проигрыш (как вступление):

E|-----------0---|------------0---|-3-1---0---1---3---1----0---1------|----------0---|
B|----1----------|----0h1---------|---------------------------------3-|----1---------|
G|---0-----0---0-|---2----2-----2-|-----2---2---2---2----2---2----2---|---0----0---0-|
D|--2----2-------|--2-------2-----|-0-----0---0---0---0----0---0------|--2---2-------|
A|-3-------------|-0--------------|-----------------------------------|-3------------|
E|---------------|----------------|-----------------------------------|--------------|

E|-----------0---|----0h1-----0h1---|----0h1-----1---|
B|---0h1---------|---3----3-------3-|---3----3-----3-|
G|--2----2-----2-|--2-------2-------|--2-------2-----|
D|-2-------2-----|-0----------------|-0--------------|
A|0--------------|------------------|----------------|
E|---------------|------------------|----------------|

Аппликатуры аккордов для гитары на песню “Сплин – Бонни и Клайд”:

Видео/Клип на песню “Сплин – Бонни и Клайд”:

Песня “Сплин – Бонни и Клайд” на Яндекс.Музыка:

Нажмите на звезду, чтобы оценить!

Средняя оценка / 5. Количество оценок:

Оценок пока нет. Поставьте оценку первым.