Северный Флот – Харон (Инструментал): аккорды для гитары

Текст песни "Северный Флот – Харон (Инструментал)" с аккордами для гитары

1)-------------------|-------------------------------------------|--------------------------|------------------
2)-------------------|-------------------------------------------|--------------------------|------------------
3)-----0--------0----|---0---------0-----0--------------0--------|---5-5--5----10--10-9-7---|---5-5--5---2-2--2
4)---7--7-7---3--3-3-|--3-3-2-0-2-3-3---2-2---5-3-5-3--3-2-3-2-0-|--2-2-2-----7--7-------10-|--2-2-2----3-3-3--
5)--5-5--5---5-5--5--|-1-----1-------1-1-----3--------3----------|-0-----0---0--------------|-0-----0--1-----0-
6)-0--------0--------|----------------------3--------------------|--------------------------|------------------
       2 раза                                                              2 раза
               D                                   C
1)----------------------------------5-|--------------------3-3-3-3-3-3-
2)----------------------------------5-|--------------------3-3-3-3-3-3-
3)-----7--------7--------7----------7-|-----5--------5-----5-5-5-5-5-5-
4)---7--7-7---7--7-7---7--7-7---7---7-|---5--5-5---5--5-5--5-5-5-5-5-5-
5)--5-5--5---5-5--5---5-5--5---5-5--5-|--3-3--3---3-3--3---3-3-3-3-3-3-
6)-5--------5--------5--------5-----5-|-3--------3---------3-3-3-3-3-3-
                                                           V v ^ ^ v v
Важно! Чтобы посмотреть аппликатуру нужного аккорда к песне “Северный Флот – Харон (Инструментал)“, просто наведите мышку/кликните на сам аккорд.

Видео/Клип на песню “Северный Флот – Харон (Инструментал)”:

Нажмите на звезду, чтобы оценить!

Средняя оценка 0 / 5. Количество оценок: 0

Оценок пока нет. Поставьте оценку первым.

Подписаться
Уведомление о
guest
0 Комментарий
inline-комментарии
Посмотреть все комментарии
ПОПУЛЯРНЫЕ АККОРДЫ: