Профессор Лебединский – Вовкина теперь: аккорды для гитары

0

Текст песни "Профессор Лебединский – Вовкина теперь" с аккордами для гитары

ПОКАЗАТЬ/СКРЫТЬ АККОРДЫ
Вступление:
  Cm                F                   Cm             Csus4  C7
E-5-6-5-6-5-6-5---5-6-5-6-5-6-5---5-6-5-6-5-6-5--10-8-
H------------------3-------------------3---------------------------
G-------------------------------------------------------------------
D-------------------------------------------------------------------
A-------------------------------------------------------------------
E-------------------------------------------------------------------
  Cm                F                   Cm            Csus4 C7  
E-5-6-5-6-5-6-5---5-6-5-6-5-6-5---5-6-5-6-5-6-5--10----
H------------------3-------------------3---------------------------
G-------------------------------------------------------------------
D-------------------------------------------------------------------
A-------------------------------------------------------------------
E-------------------------------------------------------------------

      Cm               Cm                Csus4   C7
А правда, что весной цветёт сирень?
      Cm              Cm              Csus4   C7
И к дому возвращаются все птицы?
   Gm                      F7            Gm Cm
И я вернулся, видишь, словно тень,
       Gm            G7             Csus4 C7
Как будто из далёкой заграницы.

А, правда, у соседей рыжий кот?
А это чьи скажи, играют дети?
По телеку сказали, что в Тюмени гололёд, 
А в Питере как прежде дождь и ветер.

       Fm/d                                                 C
А, правда, что Ты больше не моя? Что Ты Вовкина теперь.
       Gm   F7                C/Fm   Cm Gm                 C#m/Fm
Как жаль, как жаль все эти годы.     Куда Ты в ночь? Куда Ты под дождём?
     Csus4                 C                       C7
Да ладно, что теперь. Ведь у природы нет плохой погоды.

Проигрыш:
  Cm                F                   Cm             Csus4  C7
E-5-6-5-6-5-6-5---5-6-5-6-5-6-5---5-6-5-6-5-6-5--10-8-
H------------------3-------------------3---------------------------
G-------------------------------------------------------------------
D-------------------------------------------------------------------
A-------------------------------------------------------------------
E-------------------------------------------------------------------
  Cm                F                   Cm            Csus4 C7  
E-5-6-5-6-5-6-5---5-6-5-6-5-6-5---5-6-5-6-5-6-5--10----
H------------------3-------------------3---------------------------
G-------------------------------------------------------------------
D-------------------------------------------------------------------
A-------------------------------------------------------------------
E-------------------------------------------------------------------

А, правда, облака все из воды? 
А, правда, верным быть уже совсем не модно?
А если дотянуться до звезды, 
То руки обожжешь огнём холодным?

А Ты, Ты всё такая же, поверь. 
Всё тот же тёплый взгляд и ласковые руки.
А, правда ли, что есть на свете зверь,
Который погибает от разлуки?

А, правда, что Ты больше не моя? Что Ты Вовкина теперь.
Как жаль, как жаль все эти годы. Куда Ты в ночь? Куда Ты под дождём?
Да ладно, что теперь. Ведь у природы нет плохой погоды.

Заключение:
  Cm                F                   Cm             Csus4  C7
E-5-6-5-6-5-6-5---5-6-5-6-5-6-5---5-6-5-6-5-6-5--10-8-
H------------------3-------------------3---------------------------
G-------------------------------------------------------------------
D-------------------------------------------------------------------
A-------------------------------------------------------------------
E-------------------------------------------------------------------
  Cm                F                   Cm            Csus4  
E-5-6-5-6-5-6-5---5-6-5-6-5-6-5---5-6-5-6-5-6-5--10----
H------------------3-------------------3---------------------------
G-------------------------------------------------------------------
D-------------------------------------------------------------------
A-------------------------------------------------------------------
E-------------------------------------------------------------------
                        C7                Cm
Ведь у природы нет плохой погоды.

Fm/D [xx0111]
D/F# [200232]
D#m/f# [xx4342]
Важно! Чтобы посмотреть аппликатуру нужного аккорда к песне “Профессор Лебединский – Вовкина теперь“, просто наведите мышку/кликните на сам аккорд.

Видео/Клип на песню “Профессор Лебединский – Вовкина теперь”:

Нажмите на звезду, чтобы оценить!

Средняя оценка / 5. Количество оценок:

Оценок пока нет. Поставьте оценку первым.

Подписаться
Уведомление о
guest
0 Комментарий
inline-комментарии
Посмотреть все комментарии