Нервы – Глупая (Оригинал): аккорды для гитары

0

Текст песни "Нервы – Глупая (Оригинал)" с аккордами для гитары

ПОКАЗАТЬ/СКРЫТЬ АККОРДЫ
1. Партия Жени (ритм).

Строй Drop D (6-ая струна опускается на тон ниже)

Вступление:
e|---------------------------------------------------------------------|
H|--------------------------------------------------------------------|
G|-7--7-7-7-7------2-2-2-2---7-7-7-7/12-12--14b---14-14-|
D|---------------------------------------------------------------------|
A|---------------------------------------------------------------------|
D|-8--8----8-8------3---3-3---0----0-0-------0----0----------0-|

(Во вступлении играем два раза)

Первый куплет:

(Ничего не играем)

Эти ментоловые сигареты просто ужас.
Ну как ты их куришь, скажи мне как ты их куришь?
И эту модную музыку, как ты можешь слушать?
Она что нравиться тебе? Ну ты сама себя дуришь!
Тебя вообще не волнуют никакие проблемы.
Твои пошлые шутки как обычно не в тему.
И ты тупишь в интернете днём и ночью, 
Он сожрёт тебя детка,
Он сожрёт тебя точно.

Припев:

(Бой VV^^V^)

                    Gm5
Ну какая ты глупая,
                C5
Я просто в шоке.
                   C5      G5
Ну какая ты глупая еее,
Какая ты глупая,
Я просто в шоке,
Ну какая ты глупая еее.

Второй куплет:

(Как вступление)

Ты одеваешься по моде, нет ты самая модная.
Ты такая же самая как и все в твоем городе.
Ты тащишься от этого вампира чудесного.
Хочешь стать его женой, подарить ему девственность.
У тебя в интернете до фига друзей.
Но когда правда хреново, скажи мне где они все?
Но ты тупи в интернете и днём, и ночью.
Он сожрал тебя детка, он сожрал тебя точно.

Припев - 2 раза

Ну какая ты глупая,
Я просто в шоке.
Ну какая ты глупая еее,
Какая ты глупая,
Я просто в шоке,
Ну какая ты глупая еее.

(Если играете на электрогитаре, здесь включайте перегруз)

Ну какая ты глупая,
Я просто в шоке.
Ну какая ты глупая еее,
Какая ты глупая,
Я просто в шоке,
Ну какая ты глупая еее.

(Выключайте перегруз)

(Проигрыш молчим)

(Здесь тоже молчим)

Ты одеваешься по моде.
Ты одеваешься по моде.
Ты одеваешься по моде.
Ты одеваешься по моде.

(Тут играем как во вступлении)

Ты одеваешься по моде,
Нет, ты самая модная.
Ты самая модная.
Ты самая модная.
Самая модная.
Самая модная.
Ты такая же самая, как и все в твоём городе!

Припев

Глупая!
Я просто в шоке.
Ну какая ты глупая еее,
Какая ты глупая,
Я просто в шоке,
Ну какая ты глупая еее.
Какая ты глупая!
Я просто в шоке,
Ну какая ты глупая еее.
Какая ты глупая!
Я просто в шоке,
Я в шоке,
Я в шоке,
Я в шоке, еее...

До конца песни играем вступление (4 раза).

2. Партия Влада (соло)

Вступление

Вступаем со второго такта

e|------------------------------------12----13--12-----|
H|-13/15----15-13------------13----13----------13-|
G|---------------------14----14----14------------------|
D|---------------------------------------------------------|
A|---------------------------------------------------------|
E|---------------------------------------------------------|

Куплет

Играется так же, как вступление, но без первого слайда, то есть сразу начинаем со второй струны 15 лада.

Припев
                  
e|------------|-17------------------------------------------|
H|----15----|-----15---15---15---15---15---15---15-|
G|-14---14-|--------14---14---14---14---14---14----|

Вторая часть табулатуры играется 4 раза, и в конце припева играем

e|-13-12--------|
H|--------15-13-|

Куплет

(Сразу играем так же, как и в первом куплете, без пауз после припева.)

Припев.

Проигрыш

(Так же, как куплеты).

Припев.

(После окончания припева молчим до конца песни).


Примечание: Эта песня не очень хорошо звучит в одну гитару, так что постарайтесь играть её в две гитары.
Важно! Чтобы посмотреть аппликатуру нужного аккорда к песне “Нервы – Глупая (Оригинал)“, просто наведите мышку/кликните на сам аккорд.

Видео/Клип на песню “Нервы – Глупая (Оригинал)”:

Нажмите на звезду, чтобы оценить!

Средняя оценка / 5. Количество оценок:

Оценок пока нет. Поставьте оценку первым.

Подписаться
Уведомление о
guest
0 Комментарий
inline-комментарии
Посмотреть все комментарии