Наутилус Помпилиус – Хлоп-Хлоп: аккорды для гитары

Текст песни "Наутилус Помпилиус – Хлоп-Хлоп" с аккордами для гитары

Вступление.
G|------------------------------------------------------|
B|------------------------------------------------------|
C|-2---5--0-----------2-----------------2--------1------|2 раза
C|-----------3--2--3--------0---0-3--2-----2--3---------|
G|------------------------------------------------------|
G|------------------------------------------------------|

G|-------------------------------------------------------------|
B|-------------------------------------------------------------|
C|-----1-2-----1-1-2--------1--2-------1--1-2--------3--4------|
C|-2-3-----2-3--------1--2--------1-2----------1--2------------|
G|-------------------------------------------------------------|
G|-------------------------------------------------------------|

G|---------------------------|--0-0---0----0-0---0---0-0---0-0-|
B|---------------------------|---------------------------------|
C|-----3-3-4-5-4-2-0---------|---------------------------------|
C|-1-2---------------3-2-0---|2-----2----2-----2---2-----2-----|
G|-------------------------3-|---------------------------------|
G|---------------------------|---------------------------------|

Gm            G
Нас выращивали денно,
Cm            G7
Мы гороховые зерна.
Нас теперь собрали вместе,
Можно брать и можно есть.
Cm            Gm
Но знайте и запоминайте,
Gm
Мы ребята не зазнайки.
Нас растят и нас же сушат
Для того, чтоб только кушать.
Нас выращивают смены
Для того, чтоб бить об стену.
Вас обваривали в супе,
Съели вас - теперь вы трупы.

Кто сказал, что бесполезно
Биться головой об стену?
Хлоп - на лоб глаза полезли,
Лоб становится кременным.

Зерна отольются в пули,
Пули отольются в гири.
Таким ударным инструментом
Мы пробьем все стены в мире.

Нас теперь не сваришь в каше,
Сталью стали мышцы наши.
Тренируйся лбом об стену,
Вырастим крутую смену.

Обращайтесь гири в камни,
Камни обращайтесь в стены.
Стены ограждают поле,
В поле зреет урожай.

Здесь выращивают денно,
А гороховые зерна
Собирают зерна вместе,
Можно брать и можно есть их.

Хвать - летит над полем семя.
Здравствуй, нынешнее племя.
Хлоп - стучит горох об стену,
Оп - мы вырастили смену.

Зерна отольются в пули,
Пули отольются в гири.
Таким ударным инструментом
Мы пробьем все стены в мире.

Обращайтесь гири в камни,
Камни обращайтесь в стены.
Стены ограждают поле,
В поле зреет урожай.
Важно! Чтобы посмотреть аппликатуру нужного аккорда к песне “Наутилус Помпилиус – Хлоп-Хлоп“, просто наведите мышку/кликните на сам аккорд.

Видео/Клип на песню “Наутилус Помпилиус – Хлоп-Хлоп”:

Нажмите на звезду, чтобы оценить!

Средняя оценка 0 / 5. Количество оценок: 0

Оценок пока нет. Поставьте оценку первым.

Подписаться
Уведомление о
guest
0 Комментарий
inline-комментарии
Посмотреть все комментарии
ПОПУЛЯРНЫЕ АККОРДЫ: