Мумий Тролль – Ранетка: аккорды для гитары

Текст песни "Мумий Тролль – Ранетка" с аккордами для гитары

2 times               3 times                 1 times
E|-------------|------------------------------|----------|
B|-------------|------------8--10--8--7--8--7-|----------|
G|---9---------|---9-----9--------------------|-9--8--10-|
D|------9--10--|------9-----------------------|----------|
A|-------------|------------------------------|----------|
E|-------------|------------------------------|----------|

          3 times                1 times
E|----------------------------|--------------|
B|----------8--10--8--7--8--7-|--------------|
G|-9-----9--------------------|-9--8-------9-|
D|----9-----------------------|--------------|
A|----------------------------|--------------|
E|----------------------------|--------------|
Вступление: Gm Gm Gm Gm Gm Gm Gm Gm Gm B
                     Gm Gm Gm Gm Gm Gm B

Gm                  Gm
1(0),2(0),1(0),1(2),1(5),1(3),1(2),1(3),1(2) - 3 раза
B
2(5),2(4)

    Gm              Gm
Вдыхаем цветы и на завтра прокиснем
   B
И рядом друг с другом наверно повиснем
   Gm                Gm
Отсохнет убьется сломается ветка
    B
На карте проверишь рыдает ранетка
    Gm                Gm
А мне бы той ночью оставили денег
  Gm                Gm
Увез бы тебя на такси
     Gm              Gm
Прости не увидел пропали билеты
B
Простыли цветы

   Gm             C
Засохли чаинки на алые губы
Gm                 Gm  Gm B
Как листья легли

Gm Gm Gm Gm Gm Gm B

    Gm              Gm
До моря дошли прокололи покрышки
   B
Заманит обманет и кинется с вышки
     Gm                Gm
Ты знаешь как тянет уснуть но едва ли
   B
Усталую скорую не понимали
    Gm                Gm
А мне бы той ночью оставили денег
  Gm                Gm
Увез бы тебя на такси
     Gm              Gm
Прости не увидел пропали билеты
B
Простыли цветы

   Gm             C
Засохли чаинки на алые губы
     Gm            Gm Gm B
Как листья легли
Важно! Чтобы посмотреть аппликатуру нужного аккорда к песне “Мумий Тролль – Ранетка“, просто наведите мышку/кликните на сам аккорд.

Видео/Клип на песню “Мумий Тролль – Ранетка”:

Нажмите на звезду, чтобы оценить!

Средняя оценка 0 / 5. Количество оценок: 0

Оценок пока нет. Поставьте оценку первым.

Подписаться
Уведомление о
guest
0 Комментарий
inline-комментарии
Посмотреть все комментарии
ПОПУЛЯРНЫЕ АККОРДЫ: