Монгол Шуудан – Песня черного анархиста: аккорды для гитары

Текст песни "Монгол Шуудан – Песня черного анархиста" с аккордами для гитары

Интро и основной рифф:
   Gm/B   Gm/B   G    B
C|----0-----0-----5----4----0----0----5----4--|
C|----2-----2-----5----4----2----2----5----4--|  и т.д.
G|-------2-----3-----2---------2----3----2----|
G|-0----------------------0-------------------|

 Пре-припев
C|---9----9----5----7----9----9----5----7-----|
C|---9----9----5----7----9----9----5----7-----|  и т.д.
G|-7---------3----5----7---------3----5-------|
G|------7-------------------7-----------------|

Припев - Gm Gm C

Лишь бы был бы бой, вот она жизнь моя
Стой, кому сказали стой, что на шапке у тебя
Портупея у тебя офицерская
Ну слезай с коня, слезай, рожа мерзкая
Ты есть диверсант, мы тебя к околице
За твой красный бант пулею раскроется

Эх правда-матка, грязная тряпка, режь ее напополам

Небо синее, сабля новая
Косы рыжие, баба голая
Баба белая, баба свежая
Эй скорей сымай портки, а не то зарежу я
Яблочко лопнуло - черви вылезли
Зарубил я бабу ту, офицерскую вдову

Эх правда-матка, грязная тряпка, режь ее напополам

Зарядил в стволы жакан, мне попался чужой
У него отнял наган, я не знаю что со мной
Я пустил его в расход возле стеночки
А по Волге пароход, а в салоне девочки
Будет все мое, это революция
Ты не лапай не твоё, заграбастал, умница

Эх правда-матка, грязная тряпка, режь ее напополам
Важно! Чтобы посмотреть аппликатуру нужного аккорда к песне “Монгол Шуудан – Песня черного анархиста“, просто наведите мышку/кликните на сам аккорд.

Видео/Клип на песню “Монгол Шуудан – Песня черного анархиста”:

Нажмите на звезду, чтобы оценить!

Средняя оценка 0 / 5. Количество оценок: 0

Оценок пока нет. Поставьте оценку первым.

Подписаться
Уведомление о
guest
0 Комментарий
inline-комментарии
Посмотреть все комментарии
ПОПУЛЯРНЫЕ АККОРДЫ: