Misc Soundtrack – The Wicker Man – Gently Johnny: аккорды для гитары

Текст песни "Misc Soundtrack – The Wicker Man – Gently Johnny" с аккордами для гитары

---------------------------------------------------------------------------
                      Gently Johnny - Magnet
---------------------------------------------------------------------------
Tabbed by: maguri
Tuning: Standard

Magnet (voc: Paul Giovanni)
Gently Johnny (1973)
(Giovanni)

From: "The Wicker Man - The Original Soundtrack Album"


---------------------------------------------------------------------------
CHORDS (capo 3rd fret)

          E-A-D-G-B-e
Em7       0-2-0-0-0-0
A7sus4    x-0-2-0-3-0
A7        x-0-2-0-2-0
Bm7 add13 x-2-2-2-1-2

---------------------------------------------------------------------------

INTRO
  Em7
  1 + 2 + 3 + 4 + 5 + 6 +  
e|--------0---------------|
B|--------3---------------|
G|--------0-------------0-|
D|--------------------0---|
A|2---------------0h2-----|
E|0-----------------------|


VERSE
  Em7                       Asus4   A
  1 + 2 + 3 + 4 + 5 + 6 +  1 + 2 + 3 + 4 + 5 + 6 + 
e|--------0---------------|------------------------|
B|--------3---------------|------3p2---------2-----|
G|--------0---------------|----------2---------2---|
D|--------------------0---|-------------2----------|
A|2---------------0h2-----|0---------------0-------|
E|0-----------------------|------------------------|
  Bm7 add13                 Em7
  1 + 2 + 3 + 4 + 5 + 6 +  1 + 2 + 3 + 4 + 5 + 6 + 
e|--------0---------------|--------0---------------|
B|3p2---------------2-----|--------3---------------|
G|2-------------------2---|--------0---------------|
D|------------------------|--------------------0---|
A|2---------------2-------|----------------0h2-----|
E|------------------------|0-----------------------|

---------------------------------------------------------------------------

time signature: 6/4

INTRO
| N.C. | N.C. | (hand drum)
| Em7 | % | % | % |


VERSE
         Em7         Asus4  A
I put my hand on her knee,   and she says 
Bm7 add13        Em7
  Do you want to see?
         Em7         Asus4  A
I put my hand on her breast,  and she says 
Bm7 add13       Em7
  Do you want a kiss?


CHORUS
       Em7            Asus4  A
Gently gently, gently Johnny, 
       Bm7 add13  Em7
Gently Johnny, my jingalo
       Em7            Asus4  A
Gently gently, gently Johnny, 
       Bm7 add13 | Em7 | % |
Gently Johnny, my jingalo


INTERLUDE
| Em7 | % | % | % | % | 


VERSE
         Em7         Asus4  A
I put my hand on her thigh,   and she says 
Bm7 add13        Em7
  Do you want to try?
         Em7         Asus4  A
I put my hand on her belly,   and she says 
Bm7 add13        Em7
  Do you want to fill me?


CHORUS
       Em7            Asus4  A
Gently gently, gently Johnny, 
       Bm7 add13  Em7
Gently Johnny, my jingalo
       Em7            Asus4  A
Gently gently, gently Johnny, 
       Bm7 add13 | Em7 | % |
Gently Johnny, my jingalo


INTERLUDE
| Em7 | % | % | % | % | 


SOLO (flute)
| Em7 | Asus4 A   | Bm7 add13| Em7 |
| Em7 | Asus4 A   | Bm7 add13| Em7 |


CHORUS
           Em7            Asus4  A
But gently gently, gently Johnny, 
       Bm7 add13  Em7
Gently Johnny, my jingalo
       Em7            Asus4  A
Gently gently, gently Johnny, 
       Bm7 add13 | Em7 | % |
Gently Johnny, my jingalo


OUTRO
| Em7 | % | % | % | % | 
(fade)
Важно! Чтобы посмотреть аппликатуру нужного аккорда к песне “Misc Soundtrack – The Wicker Man – Gently Johnny“, просто наведите мышку/кликните на сам аккорд.

Видео/Клип на песню “Misc Soundtrack – The Wicker Man – Gently Johnny”:

Нажмите на звезду, чтобы оценить!

Средняя оценка 0 / 5. Количество оценок: 0

Оценок пока нет. Поставьте оценку первым.

Подписаться
Уведомление о
guest
0 Комментарий
inline-комментарии
Посмотреть все комментарии
ПОПУЛЯРНЫЕ АККОРДЫ:
Adblock
detector