Misc Soundtrack – Muskurane Ki Wajah Tum Ho Unplugged: аккорды для гитары

Текст песни "Misc Soundtrack – Muskurane Ki Wajah Tum Ho Unplugged" с аккордами для гитары

Song : Muskurane KI Wajah Tum Ho (unplugged)
Artist : Mohammed Irfan
Movie : Citylights
Guitar Scale : Am
*[The original song is in Bm but the unplugged version is in Am]
Tabbed by : Sourav Roy (https://www.facebook.com/sourav.roy.98622)(1994sourav@gmail.com)


Intro (Piano Lead)
e-|--------------------|--------------------|-----------------------------|-
B-|-13-12-13-----------|--------------------|-----------------------------|-
G-|--------------------|--14-12-14----------|-----------------------------|-
D-|-------------/15-14-|--------------12----|----14-13-14-14--14--14------|-
A-|--------------------|-----------------15-|-15---------------------15---|-
E-|--------------------|--------------------|-----------------------------|-

e-|----------------------|-----------------------|-
B-|----------------------|-----------------------|-
G-|-12-------------------|--14-12----------------|-
D-|-----15-14------------|----------15----14-15--|-
A-|----------------11-12-|-----------------------|-
E-|----------------------|-----------------------|-

e-|--------------------------------------------|-
B-|--------------------------------------------|-
G-|--------------------------------------------|-
D-|--12-14-15----------12-h/p-14---------------|-
A-|--------------14-14-----------15-----14-15--|-
E-|--------------------------------------------|-


[Intro] (humming in the background)
|Am Am|G G|F F|


     E
Jiya jaaye na, jaaye na, jaaye na.
          Am
O re piya re.
     E
Jiya jaaye na, jaaye na, jaaye na.
          Am
O re piya re.

Am                      G
O re lamhe tu kahin mat jaa
G                         F
Ho sake toh umr bhar tham jaa
     E
Jiya jaaye na, jaaye na, jaaye na.
          Am
O re piya re.
     E
Jiya jaaye na, jaaye na, jaaye na.
          Am       G       Am
O re piya re..........piya re

Am                             G
Dhoop aaye toh, chhaanv tum laana
G
Khwahishon ki baarishon mein
F             Am
Bheeg sang jaana
     E
Jiya jaaye na, jaaye na, jaaye na.
          Am
O re piya re.
     E
Jiya jaaye na, jaaye na, jaaye na.
          Am
O re piya re.

Am                      G
Jo mile usme kaat lenge hum
G
Thodi khushiyaan thode aansu
F           Am
Baant lenge hum
Am                      G
Jo mile usme kaat lenge hum
G
Thodi khushiyaan thode aansu
F           Am
Baant lenge hum
     E
Jiya jaaye na, jaaye na, jaaye na.
          Am
O re piya re.
     E
Jiya jaaye na, jaaye na, jaaye na.
          Am       G       Am
O re piya re..........piya re



************************************

| /  Slide up

************************************
Важно! Чтобы посмотреть аппликатуру нужного аккорда к песне “Misc Soundtrack – Muskurane Ki Wajah Tum Ho Unplugged“, просто наведите мышку/кликните на сам аккорд.

Видео/Клип на песню “Misc Soundtrack – Muskurane Ki Wajah Tum Ho Unplugged”:

Нажмите на звезду, чтобы оценить!

Средняя оценка 0 / 5. Количество оценок: 0

Оценок пока нет. Поставьте оценку первым.

Подписаться
Уведомление о
guest
0 Комментарий
inline-комментарии
Посмотреть все комментарии
ПОПУЛЯРНЫЕ АККОРДЫ:
Adblock
detector