Misc Soundtrack – Main Tenu Samjhawan Ki Female: аккорды для гитары

Текст песни "Misc Soundtrack – Main Tenu Samjhawan Ki Female" с аккордами для гитары

Song : Main Tenu Samjhawan Ki (Female)
Artist : Alia Bhatt
Movie : Humpty Sharma Ki Dulhaniyan
Guitar Scale : A#
Tabbed by : Sourav Roy (https://www.facebook.com/sourav.roy.98622)(1994sourav@gmail.com)

[Intro]
e|------------------|----------------------------------------|
B|-------13---------|-------13-15-15/16-15-13----------13----|
G|-14-15----15------|-14-15-------------------15-14-15----15-|
D|------------------|----------------------------------------|
A|------------------|----------------------------------------|
E|------------------|----------------------------------------|


              F        A# |
main tenu samjhawan ki    |
             F         A# | x2
na tere bina lagda jee    |

             Gm      F
tu ki jaanay pyaar mera 
                Gm    F
main karoon intezar tera 
              A#   D#   F
tu dil tuyoon jaaaaan meri
          A#
jaaaaan meri
          A#
jaaaaan meri

A#             Gm             D#               F
  mere dil wich choon laiya ne tere dil diyaan raawan
A#          Gm            D#              F
  tu jo mere naal tu rehda turpe meriyaan saaha
          A#   F
  jeena mera...hayaiiii
            A#            F
  hun hai tera, ki main karaan
            Gm    F
  tu kar aitbar mera
                  Gm    F
  main karoon intezar tera
                 A#   D#   F
  tu dil tuiyoon jaaaaan meri
          A#
jaaaaan meri
          A#
jaaaaan meri

              F        A# |
main tenu samjhawan ki    |
             F         A# | x2
na tere bina lagda jee    |

                 Gm         Dm 
Ve changa nahion keeta beeba
                 Gm
Ve changa nahion keeta beeba
    D#       F
Dil mera tod ke
             Gm            Dm
Ve bada pachhtaiyaan akhaan
             Gm
Ve bada pachhtaiyaan akhaan
     D#       F
Naal tere jod ke

[Outro]
e|------------------|----------------------------------------|
B|-------13---------|-------13-15-15/16-15-13----------13----|
G|-14-15----15------|-14-15-------------------15-14-15----15-|
D|------------------|----------------------------------------|
A|------------------|----------------------------------------|
E|------------------|----------------------------------------|



************************************

| /  Slide up

************************************
Важно! Чтобы посмотреть аппликатуру нужного аккорда к песне “Misc Soundtrack – Main Tenu Samjhawan Ki Female“, просто наведите мышку/кликните на сам аккорд.

Видео/Клип на песню “Misc Soundtrack – Main Tenu Samjhawan Ki Female”:

Нажмите на звезду, чтобы оценить!

Средняя оценка 0 / 5. Количество оценок: 0

Оценок пока нет. Поставьте оценку первым.

Подписаться
Уведомление о
guest
0 Комментарий
inline-комментарии
Посмотреть все комментарии
ПОПУЛЯРНЫЕ АККОРДЫ:
Adblock
detector