Михаил Круг – Девочка-пай: аккорды песни

55

Текст песни "Михаил Круг – Девочка-пай" с аккордами для гитары


В тебе было  столько желания,
И месяц над нами светил,  
Когда, по маляве придя на свидание,
Я розы тебе подарил.
Какой ты казалась серьезной,
Качала в ответ головой,   
Когда я сказал, что отнял эти розы
В киоске на Первой Ямской.


Припев:
Как было тепло,
Что нас с тобой вместе свело,
Девочка-пай, рядом жиган и хулиган.
В нашей Твери нету таких
Даже среди шкур центровых
Девочка-пай, ты  не грусти и не скучай.


Понты просадил я чуть  позже,
В делах узелки затянул,   
А наш участковый, ментовская рожа,
Домой к тебе вдруг заглянул.
Он как портретист на Трехсвятской
Твоим нас с тобой рисовал,
Давил, что ты станешь подстилкой кабацкой
И с чаем пол-торта сожрал.


Припев:
Как было тепло,
Что нас с тобой вместе свело,
Девочка-пай, рядом жиган и хулиган.
В нашей Твери нету таких
Даже среди шкур центровых
Девочка-пай, ты  не грусти и не скучай.


Овца шабутная, мамаша,
Как утка тряся потроха   
Тебя провожала по улице  нашей –
Папаша привел женишка.
Но как-то под вечер в подъезде
К нему подкатил  я слегка.
Он нес тебе розы, а я ему съездил
Отnbsp; всей души, с левой, крюка.


Припев:
Как было тепло,
Что нас с тобой вместе свело,
Девочка-пай, рядом жиган и хулиган.
В нашей Твери нету таких
Даже среди шкур центровых
Девочка-пай, ты  не грусти и не скучай.


Паттерн куплета:

E|--0-0--0-0--0-0--0-0--0-0--1-1--1-1--1-1--1-1--0-0--0-0--0-0--0-0--|
H|--1-1--0-0--1-1--2-2--2-2--3-3--3-3--3-3--3-3--1-1--1-1--0-0--0-0--|
G|--2-2--1-1--2-2--0-0--0-0--2-2--2-2--2-2--2-2--2-2--2-2--1-1--1-1--| 
D|---------------------2---------0---------0---------2---------2-----|
A|-0----2----0----0---------0---------0---------0---------2--------0-|
E|-------------------------------------------------------------------|
 
E|---------1-1--1-1--1-1----------0-0--0-0--0-0-----------1-1--1-1--3-3--3-3--0-0--0-0-|
H|---------3-3--3-3--3-3----------1-1--1-1--1-1-----------3-3--3-3--0-0--0-0--1-1--1-1-|
G|---------2-2--2-2--2-2----------2-2--2-2--2-2-----------2-2--2-2--0-0--0-0--0-0--0-0-|
D|-------------0---------0------------0---------0-------------0---------0---------2----|
A|-0-2-3-0----------0------0-2-3-0---------0------0-2-3-0----------2---------3---------|
E|-------------------------------------------------------------------------------------|

E|--0-0-----------1-1--1-1--1-1-----------0-0--0-0--0-0---------1-1--1-1--0-0--0-0--|
H|--1-1-----------3-3--3-3--3-3-----------1-1--1-1--1-1---------3-3--3-3--0-0--0-0--|
G|--0-0-----------2-2--2-2--2-2-----------0-0--0-0--0-0---------2-2--2-2--1-1--1-1--|
D|------2-------------0---------0-------------2---------------------0---------2-----|
A|-3------0-2-3-0----------0------0-2-3-0----------0----0-2-3-0----------2---------0|
E|----------------------------------------------------------------------------------|

Аппликатуры аккордов для гитары на песню “Михаил Круг – Девочка-пай”:

Видео/Клип на песню “Михаил Круг – Девочка-пай”:

Песня “Михаил Круг – Девочка-пай” на Яндекс.Музыка:

Нажмите на звезду, чтобы оценить!

Средняя оценка / 5. Количество оценок:

Оценок пока нет. Поставьте оценку первым.

Подписаться
Уведомление о
guest
0 Комментарий
inline-комментарии
Посмотреть все комментарии