Melody Gardot – Morning Sun: аккорды для гитары

Текст песни "Melody Gardot – Morning Sun" с аккордами для гитары

Capo 1st fret

[Chords]
C F Dm7 Dm

[Intro]
C F C Dm7
C F Dm7 C F C

[Riff]
       C
E|-----------------------------------------|
B|-----------------------------------------|
G|-----0--------------------------------0--|
D|-----2--0-----------------------------2--|
A|-----3-----3--0-----------------0--3--3--|
E|-----------------3-----3--3--3-----------|

[Verse 1]
C                  F
There little babe, don't you cry
C                               F
We got that sunny morning waitin' on us now
C                                 F
There's a light at the end of the tunnel
C
We can be worry free
     Dm7
Just take it from me
      F
Honey child
C      F             C
Let me tell you now, child

[Verse 2]
C                           F
That morning sun is here to greet us
C                        F
With her loving light so warm
C                           F
That morning sun is here to meet us
C                           F
Waitin' on the wakin' up of everyone
C                                       Dm7
She ain't gonna quit 'till you're smiling now
                F
Lemme tell you, child
C          F          C
Lemme tell you, honey child

[Verse 3]
C
That morning sun
F
Has come to greet ya
C
She's peekin' the round corner
F
Just waitin' just to meet ya
C                        Dm7
Shinin' down on all your troubles
F
Lemme tell ya, child
C     F               C
Lemme tell ya, honey child

[Hook 1]
C
Cause this world was made for dreamin'
F
This world was made for you
C
This world made for believin'
F
In all the things you're gonna do
          F
Now honey child
C     F           C
Lemme tell ya now child

[Instrumental]
C - F - C - Dm7
C - F - Dm7 - F - C - F

[Hook 2]
C
Cause this world was made for dreamin'
F
This world was made for you
C
This world made for believin'
F
In all the things you're gonna do
          F
Now honey child
C     F           C
Lemme tell ya now child
         F
Oh honey child
C     F           C
Lemme tell ya now child
         Dm7
Oh honey child
              C
Lemme tell ya child
F             C
Lemme tell ya child
F             C
Lemme tell ya child

[Outro]
C  F  C  Dm7
C

    C
E|--3--0--5--3--------|
B|--------------1-----|
G|--0-----5--0--------|
D|--------------------|
A|--------------------|
E|--------------------|

    C                                 F          Cma7
E|--3-----7--3--5--0--3-------0----------------------|
B|-----5-----------------3-------1-------3--------5--|
G|--0-----5-----5-----0-------0-------2-----------4--|
D|------------------------------------------------5--|
A|------------------------------------------------3--|
E|------------------------------------1--------------|
Важно! Чтобы посмотреть аппликатуру нужного аккорда к песне “Melody Gardot – Morning Sun“, просто наведите мышку/кликните на сам аккорд.

Видео/Клип на песню “Melody Gardot – Morning Sun”:

Нажмите на звезду, чтобы оценить!

Средняя оценка 0 / 5. Количество оценок: 0

Оценок пока нет. Поставьте оценку первым.

Подписаться
Уведомление о
guest
0 Комментарий
inline-комментарии
Посмотреть все комментарии
ПОПУЛЯРНЫЕ АККОРДЫ:
Adblock
detector