Los Tigres del Norte – La Granja: аккорды для гитары

Текст песни "Los Tigres del Norte – La Granja" с аккордами для гитары

Song: La Granja
Artist: Los Tigres Del Norte
Tempo: 110bpm
Key: Bb Major
Tuning: E A D G




[Verse 1](0:11)
G|---------------------------------|---------------------------------|--------------------------8-------|
D|-------------------------8-8-8---|-----8-------8-------8-----------|---------7-------10---------------|
A|---------------------------------|-------------------------5---6---|-8--------------------------------|
E|-6-------6-----------------------|-6-6-----6-6-----6-6-------------|----------------------------------|


G|-10---------------------------------|-----------------------------------|----------------------------------|
D|----------10-----------7---10-------|---------10---------------10-------|---------------------7---10-------|
A|-----------------x-8----------------|-8----------------8----------------|-8-------8-------8----------------|
E|------------------------------------|-----------------------------------|----------------------------------|


G|---------------------------------|
D|-8-------5-----------------------|
A|-----------------8-------5-------|
E|---------------------------------|


G|---------------------------------|----------8-8-10---10----------------|---------------------------------|
D|---------------------------------|-----10---------------------10-------|-8-------5-----------------------|
A|---------5-------6-------7-------|-8-----------------------------------|-----------------8-------5-------|
E|-6-------------------------------|-------------------------------------|---------------------------------|



G|---------------------------------|---------------------------------|---------------------------------|
D|---------6---7---8---------------|-----------------8---------------|-----------------8---------------|
A|-------------------------8-------|---------8---------------8-------|---------8---------------8-------|
E|-6-------------------------------|-6-------------------------------|-6-------------------------------|


[Verse 2](0:41)
G|---------------------------------|---------------------------------|---------------------------------|
D|---------5-----------------------|---------6---7---8---------------|---------------------------------|
A|-----------------8-------5-------|-------------------------8-------|---------8-------6-------7-------|
E|-6-------------------------------|-6-------------------------------|-6-------------------------------|


G|-----10-------10-------10-------10---|----------------------------------|
D|-------------------------------------|---------7-------10---------------|
A|-8-8------8-8------8-8------8-8------|-8------------------------------x-|
E|-------------------------------------|--------------------------8-------|


G|--------------10--------------------|---------------------------------|---------------------------------|
D|-----7---10----------------10-------|-------------------------5-------|-8-------5-----------------------|
A|-8-----------------8----------------|-8-------6-------8---------------|-----------------8-------5-------|
E|------------------------------------|---------------------------------|---------------------------------|


G|-----8-------8-------8-----------|----------12---12---10----------------|---------------------------------|
D|---------------------------------|-----10----------------------10-------|-8-------5-----------------------|
A|-5-5-----5-5-----6-6-----7-7-----|-8------------------------------------|-----------------8-------5-------|
E|---------------------------------|--------------------------------------|---------------------------------|



G|---------------------------------|---------------------------------|---------------------------------|
D|---------6---7---8---------------|-----------------8---------------|---------------------------------|
A|-------------------------8-------|---------8---------------8-------|---------8---------------8-------|
E|-6-------------------------------|-6-------------------------------|-6---------------6---------------|


[Verse 3](1:11)
G|---------------------------------|---------8s10---8-8-----------------|---------------------------------|
D|-8-------6-------5---------------|-----8------------------------------|-------------------------5-------|
A|-------------------------8-----x-|-6----------------------5---6---7---|-8-------6-------8---------------|
E|---------------------------------|------------------------------------|---------------------------------|


G|---------------------------------|---------------------------------|---------12---11---10----------------|
D|-8-------5-----------------------|---------------------------------|----------------------------10-------|
A|-----------------8-------5-------|---------8-----x-6-----x-7-----x-|-8-----------------------------------|
E|---------------------------------|-6-------------------------------|-------------------------------------|


G|---------------------------------|---------------------------------|-----8-------8-------8-------8---|
D|-------------------------5-------|-----8-------5-------------------|---------------------------------|
A|-8-------6-------8---------------|---------------------8-------5---|-5-5-----5-5-----5-5-----5-5-----|
E|---------------------------------|---------------------------------|---------------------------------|


G|----------8-8-10---10----------------|---------------------------------|---------------------------------|
D|-----10---------------------10-------|-8-------5-----------------------|---------6---7---8---------------|
A|-8-----------------------------------|-----------------8-------5-------|-------------------------8-------|
E|-------------------------------------|---------------------------------|-6-------------------------------|


[Interlude](1:37)
G|---------------------------------|--------------|--------------10--------------------|
D|-----------------8---------------|--------------|-----7---10----------------10-------|
A|---------8---------------8-------|---------6----|-8-----------------8----------------|
E|-6-------------------------------|-6------------|------------------------------------|


G|----------------------------------|---------------------------------|---------------------------------|
D|---------10-----------------------|-8-------5-----------------------|-----8-------8-------------------|
A|-8----------------8-------6-------|---------------x-8-----x-6---5---|-------------------------8-------|
E|----------------------------------|---------------------------------|-6-------------------------------|


[Verse 4](1:49)
G|---------------------------------|---------------------------------|---------------------------------|
D|---------5-----------------------|-------------7---8---------------|---------------------------------|
A|-----------------8-------5-------|-------------------------8-------|---------8-----x-6-----x-7-----x-|
E|-6-------------------------------|-6-------------------------------|-6-------------------------------|


G|----------------------7---8---9---|-10------------------------------10---|
D|-----7---8---9---10---------------|----------10---------------10-10------|
A|-8--------------------------------|-------------------8------------------|
E|----------------------------------|--------------------------------------|


G|-----------------------------------|---------------------------------|---------------------------------|
D|---------10---------------10-------|-------------------------5-------|-8-------5-----------------------|
A|-8----------------8----------------|-8-------6-------8---------------|-----------------8-------5-------|
E|-----------------------------------|---------------------------------|---------------------------------|


G|---------------------------------|--------------10--------------------|---------------------------------|
D|---------------------------------|-----7---10----------------10-------|-8-------5-----------------------|
A|---------8-------6-------7-------|-8-----------------8----------------|-----------------8-------5-------|
E|-6-------------------------------|------------------------------------|---------------------------------|

G|---------------------------------|---------------------------------|---------------------------------|
D|---------6---7---8---------------|-----------------8---------------|-----------------8---------------|
A|-------------------------8-------|---------8---------------8-------|---------8---------------8-------|
E|-6-------------------------------|-6-------------------------------|-6-------------------------------|


[Verse 5](2:19)
G|---------------------------------|---------------------------------|---------------------------------|
D|---------5-----------------------|-------------8-------8-------8---|---------------------------------|
A|-----------------8-------5-------|---------------------------------|---------8-------6-------7-------|
E|-6-------------------------------|-6-------6-------6-------6-------|-6-------------------------------|


G|-----10-------10-------10-------10---|--------------------------10-10-10---|
D|-------------------------------------|---------7-------10------------------|
A|-8-8------8-8------8-8------8-8------|-8-----------------------------------|
E|-------------------------------------|-------------------------------------|


G|-----------------------------------|---------------------------------|---------------------------------|
D|---------10---------------10-------|-------------------------5-------|-8-------5-----------------------|
A|-8----------------8----------------|-8-------6-------8---------------|---------------x-8-----x-5-------|
E|-----------------------------------|---------------------------------|-------------------------------x-|


G|-----8-------8-------8-----------|---------12---11---10----------------|---------------------------------|
D|---------------------------------|----------------------------10-------|-8-------5-----------------------|
A|---------5-------6-------7-------|-8-----------------------------------|-----------------8-------5-------|
E|-6-------------------------------|-------------------------------------|---------------------------------|


G|---------------------------------|---------------------------------|---------------------------------|
D|---------6---7---8---------------|-----------------8---------------|---------------------------------|
A|-------------------------8-------|---------8---------------8-------|---------8---------------8-------|
E|-6-------------------------------|-6-------------------------------|-6---------------6---------------|


[Verse 6](2:49)
G|---------------------------------|---------6---8-8-8---------------|---------------------------------|
D|-8-------6-------5---------------|-----8---------------------------|---------------------------------|
A|-------------------------8-----x-|-6-------------------5---6---7---|-8---8-------6-------5-----------|
E|---------------------------------|---------------------------------|-----------------------------8---|


G|---------------------------------|---------------------------------|--------------10--------------------|
D|---------------------------------|---------------------------------|-----7---10----------------10-------|
A|-----------------------------8---|---------8-------6-------7-----x-|-8-----------------8----------------|
E|-6-----------5---6---------------|-6-------------------------------|------------------------------------|


G|---------------------------------|---------------------------------|---------------------------------|
D|-------------------------5-------|-8-------5-----------------------|---------------------------------|
A|-8-------6-------8---------------|-----------------8-------5-------|---------8-------6-------7-----x-|
E|---------------------------------|---------------------------------|-6-------------------------------|


G|--------------10--------------------|---------------------------------|---------------------------------|
D|-----7---10----------------10-------|-8-------5-----------------------|---------6---7---8---------------|
A|-8-----------------8----------------|-----------------8-------5-------|-------------------------8-------|
E|------------------------------------|---------------------------------|-6-------------------------------|


G|---------------------------------|---------------------------------|
D|-----------------8---------------|---------------------------------|
A|---------8---------------8-------|---------8---------------8-------|
E|-6-------------------------------|-6---------------6---------------|

[Verse 7](3:19)
G|---------------------------------|---------8s10---9---8---------------|---------------------------------|
D|-8-------6-------5---------------|------------------------------------|-------------------------5-------|
A|-------------------------8-----x-|-6----------------------5---6---7---|-8-------6-------8---------------|
E|---------------------------------|------------------------------------|---------------------------------|


G|---------------------------------|-----8-------8-------8-----------|----------8-8-10---10----------------|
D|-8-------5-----------------------|---------------------------------|-----10---------------------10-------|
A|-----------------8-------5-5-----|---------5-5-----6-6-----7-7-----|-8-----------------------------------|
E|---------------------------------|-6-6-----------------------------|-------------------------------------|


G|---------------------------------|---------------------------------|---------------------------------|
D|-------------------------5-------|-8-------5-----------------------|---------------------------------|
A|-8-------6-------8---------------|-----------------8-------5-------|---------5-------6-------7-----x-|
E|---------------------------------|---------------------------------|-6-------------------------------|


G|--------------10--------------------|---------------------------------|---------------------------------|
D|-----7---10----------------10-------|-8-------5-----------------------|---------6---7---8---------------|
A|-8-----------------8----------------|-----------------8-------5-------|-------------------------8-------|
E|------------------------------------|---------------------------------|-6-------------------------------|


G|---------------------------------|
D|---------------------------------|
A|---------5-----------------------|
E|-6---------------6---------------|

[END]

************************************

| s  Slide
| x  Mute

************************************
Важно! Чтобы посмотреть аппликатуру нужного аккорда к песне “Los Tigres del Norte – La Granja“, просто наведите мышку/кликните на сам аккорд.

Видео/Клип на песню “Los Tigres del Norte – La Granja”:

Нажмите на звезду, чтобы оценить!

Средняя оценка 0 / 5. Количество оценок: 0

Оценок пока нет. Поставьте оценку первым.

Подписаться
Уведомление о
guest
0 Комментарий
inline-комментарии
Посмотреть все комментарии
ПОПУЛЯРНЫЕ АККОРДЫ: