Константин Ступин – Дождь: аккорды для гитары

Текст песни "Константин Ступин – Дождь" с аккордами для гитары

Вступление/проигрыш
------------------------------------------------------
------------------------------------------------------
------------------------------------------------------
------2-----2------2-3--2---------------------------
--0------0-----0-------------------2-----------------
--------------------------------3---------------------

------------------------------------------------------
------------------------------------------------------
------------------------------------------------------
------------------------------------------------------
------2-----------2------------------3-----5---3----2--
---0-----0-----3-----3------1------------------------

B5 
Шел дождь пел ветер
B5 G5
горел камин
B5 G5 B5 F5
Еще одно столетье унесло как дым
C5 B5
Моя тень ворует чьи-то сны чужие грезы

проигрыш х2

B5
Я знаю всё растает
B5 G5
как папиросы дым
А5 G5 F5
Мои следы своруют чтоб пройти по ним
C5 B5
И только тень моя напомнит обо мне

проигрыш
B5 F5 B5 (2 раза)
F5 C5

Шел дождь пел ветер
горел камин
Еще одно столетие унесло как дым
И я и ты уйдем за ним оставив только тени
Важно! Чтобы посмотреть аппликатуру нужного аккорда к песне “Константин Ступин – Дождь“, просто наведите мышку/кликните на сам аккорд.

Видео/Клип на песню “Константин Ступин – Дождь”:

Нажмите на звезду, чтобы оценить!

Средняя оценка 0 / 5. Количество оценок: 0

Оценок пока нет. Поставьте оценку первым.

Подписаться
Уведомление о
guest
0 Комментарий
inline-комментарии
Посмотреть все комментарии
ПОПУЛЯРНЫЕ АККОРДЫ:
Adblock
detector