ДДТ – Вальс: аккорды для гитары

Текст песни "ДДТ – Вальс" с аккордами для гитары

Вступление:
E|--7--5-3-2-3--2-0------------0--------|
B|---------------------3-1----1----4-0--|
G|---------------------------2----------|

E|--7--5-3-2-3--2-0------------0--------|
B|---------------------3-1----1----4----|
G|---------------------------2----------|

E|--0--1-0---0--1-0---0--1-0------------|
B|----------4---------4----------4-4-0--|
G|--------------------------------------|

E|--7--5-3-2-3--2-0------------0--------|
B|---------------------3-1----1----4----|
G|---------------------------2----------|

     B7
E|-----0-0---------0-0--------0-0---------2-2-|
B|-----0-0---------1-1--------1-1---------0-0-|
G|-----0-0---------0-0--------2-2---------2-2-|
D|--------------------------------------------|
A|---------------3----------0----------2------|
E|--0-----------------------------------------|
   Дай хоть на секунду испытать святую милость

     B7
E|-----0-0---------0-0--------0-0---------2-2-|
B|-----0-0---------1-1--------1-1---------0-0-|
G|-----0-0---------0-0--------2-2---------2-2-|
D|--------------------------------------------|
A|---------------3----------0----------2------|
E|--0-----------------------------------------|
   Снег, вчера упавший, расспросить про небеса

      B7
E|-----0-0---------0-0--------0-0---------2-2-|
B|-----1-1---------1-1--------1-1---------0-0-|
G|-----0-0---------0-0--------0-0---------2-2-|
D|--------------------------------------------|
A|--3------------3----------3----------2------|
E|--------------------------------------------|
    Что бы не пропало, не погибло, не случилось,

     B7
E|-----0-0---------0-0--------0-0---------2-2-|
B|-----0-0---------1-1--------1-1---------0-0-|
G|-----0-0---------0-0--------2-2---------2-2-|
D|--------------------------------------------|
A|---------------3----------0----------2------|
E|--0-----------------------------------------|
    Слышать доносящиеся с неба  голоса.

 B7
И догнать бредущую в безпамятстве дорогу,
 B7
И вернуть на место землю,как заведено
 B7
Покажите чудо, чтобы видно было многим,
    B7
Как перевоплощается в кровь твое вино.

Ветрами, морозами, хоть чем-нибудь, поверьте
Покажи нам чудо, злую осень покажи
Жизнь всегда любуется великолепной смертью
Смерть всегда отчаянно запоминает жизнь.
А если бы хоть строчка этой ночью получилась
День жужал и жег бумагой белой на столе
Все что потерял я, отлюбил, что не свершилось
Вырастив подстрочника зеленым на золе

Дай мне оправдать твою безжалостную милость
Верными аккордами подыскать ключи
В сад где все начала, все концы, куда стремились
Мы, когда нас резали и штопали врачи.
Вырваться за грань уютной проданной свободы,
Выбраться на волю сквозь витрины, миражи
Лечь в траву сухую и увидеть свои роды
Бабка-повитуха-смерть хоть что-нибудь скажи.
Важно! Чтобы посмотреть аппликатуру нужного аккорда к песне “ДДТ – Вальс“, просто наведите мышку/кликните на сам аккорд.

Видео/Клип на песню “ДДТ – Вальс”:

Нажмите на звезду, чтобы оценить!

Средняя оценка 0 / 5. Количество оценок: 0

Оценок пока нет. Поставьте оценку первым.

Подписаться
Уведомление о
guest
0 Комментарий
inline-комментарии
Посмотреть все комментарии
ПОПУЛЯРНЫЕ АККОРДЫ: