Чиж – Она не вышла замуж: аккорды для гитары

1

Текст песни "Чиж – Она не вышла замуж" с аккордами для гитары

ПОКАЗАТЬ/СКРЫТЬ АККОРДЫ
Проигрыш:
|------5-8--5------------------------5-8--5-----------------|
|---5~--------5--/6--3----------4/5---------6--/3--0--1~----|
|-----------------------5~----------------------------------|

|-----------------------------------------------------------|
|-----1-/3b----/5-3--/3--1-------{---1-1----/5~~}-----------|
|---2-------------------------2----{2-------------}---------|

|------5-8--5------------------------5-8--5----/5--3--------|
|---5~--------5--/6--3--------/5-/5---------3---------5~~~--|
|-----------------------5~----------------------------------|

|-----------------------------------------------------------|
|--3--1----------1-1--/5b-3--/3-1----------------1-1--/5-/5-|
|-------------2---------------------5b------2---------------|

Первое соло - после слов "...очень рано вставать".

|--------------------------------------------------/3-3--/5-|
|-/8v8v8~-----1-/3-3b-3b-3b-1----1-/3b-3b-3b-1--------------|
|--------------2------------------2-------------------------|

|--8b-5-----------------------------------------------------|
|--------/8~-8-8~-----8-----1---3-1---/5~5-3----------------|
|-------------------------------2-------------------2-2-----|

|------------------|
|---31-------------| - 31 - это быстрый перебздыньк
|-2----------------|
|-----/75----------|
|----------/7--7---|
|------------------|

Соло после "эээ"
Судя по звуку исполняет другой человек на другой гитаре
(Чиж, небось).
                           Пауза
|--------------------------------|--|-0-5-7-8-0--Н-р------------
|
|3-5-3~-3-1---3-1-----1-3-5--3-1-|--|-----------5^6^5-3-3-1-3-1-
|
|^^^^^------2-----2-2------------|--|---------------------------
|

Быстрый перебздыньк - чуть тише
|-/5--3-1-------------|
|---------3--3--1-----|
|------------------2--|

Финал 3-его соло.

|----------------------------------------|
|--/1/3/5---3-1--1-----------------------|
|-2-----------2--------2-----------------|

Последнее соло - почти точное повторение первой половины
первого

 Em
Она не вышла замуж за хромого еврея,
 Em
Она не вышла замуж за седого араба,
 Am?                          Em
Ее не прельщали ни Чикаго, ни Бейрут, ни Ханой.
 C           B7             Em
Она хотела каждый вечер возвращаться домой.
    C     B7
Она жила на Сумской.

Ее подруга говорила: "Ну какая ты дура!
Ведь там такая жизннь, там такая культура.
Там выступает Майкл Джексон, там Мадонна, там играет Ван Дамм.
Мне бы твое - давно была бы там!"

Но она не шла на провокационные споры,
Ей надоели псевдозаграничные разговоры.
Она молча доедала свой ужин, она ложилась спать,
Сославшись на то, что ей очень рано вставать.

У нее был парень - гитарист и певец.
О нем говорили: "Это полный вперед!"
Он играл буги-вуги, пел блюзы и рок-н-ролл,
Он курил анашу, пил вино, употреблял димедрол.

Она любила его - он отвечал ей постелью.
Она мечтала стать второй его тенью.
Она терпеливо дожидалась из гастролей его -
Он приезжал, напивался и орал, что Совок - дерьмо.

Он называл ее Бэби, а она его Милый.
Им не было тесно в ее тесной квартире,
Когда он заходил по ночам в месяц раза три.
Ей хотелось кричать: "Возьми меня, любимый, возьми!"

А он трахался молча, потом мгновенно засыпал,
Потом она - на работу, а он - на вокзал.
Гостиница, вино, телевизор, барабанщик-сосед.
Иногда кто-нибудь еще, кто сделает минет.

И оказалось, что она беременна с месяц,
А рок-н-ролльная жизнь исключает оседлость.
К тому же пригласили в Копенгаген на гастроли его,
И все кругом говорили: "Добился-таки своего!"

Естественно, он не вернулся назад:
Ну конечно, там рай, ну конечно, здесь ад.
А она - что она? Родила и с ребенком живет.
Говорят, музыканты - самый циничный народ.

Вы спросите, что дальше? Ну, откуда мне знать.
Я все это придумал сам, когда мне не хотелось спать.
Грустное буги, извечный ля-минор.
Ну конечно, там ад, а здесь рай - вот и весь разговор.
Важно! Чтобы посмотреть аппликатуру нужного аккорда к песне “Чиж – Она не вышла замуж“, просто наведите мышку/кликните на сам аккорд.

Видео/Клип на песню “Чиж – Она не вышла замуж”:

Нажмите на звезду, чтобы оценить!

Средняя оценка / 5. Количество оценок:

Оценок пока нет. Поставьте оценку первым.

Подписаться
Уведомление о
guest
0 Комментарий
inline-комментарии
Посмотреть все комментарии