Черный кофе – Вольному – воля!: аккорды для гитары

Текст песни "Черный кофе – Вольному – воля!" с аккордами для гитары

F5             G5        A5                    G5        F5
E|----------------------------------|-----------------------------------|
B|-------------5---3-----0----------|-----------5---3------5----3-------|
G|---2-----------------------0----2-|--2------------------------------5-|
D|-------3--------------------------|----------3------------------------|
A|----------------------------------|-----------------------------------|
E|----------------------------------|-----------------------------------|

    F5           G5            A5             C5        E5
E|----------------------------------|----------------------------------|
B|------------5---3-----0-----------|----------------------------------|
G|---2------------------------0---2-|---4--5--4---------5--7--9--------|
D|--------3-------------------------|----------------------------------|
A|----------------------------------|----------------------------------|
E|----------------------------------|----------------------------------|

                   A5            F5
Жизнь не вернешь вольному - воля
                             D5  A5
Только пройдешь снова вдоль поля
                         A5  F5
Там где ты poc тяжкая доля
                        D5  A5
Видеть погост возле берез

                  G5                           A5  
                Однажды здесь теплом томился воздух
                    G5                             A5
                Однажды здесь мир счастлив был и прост
                     G5                          A5
                Теперь один идешь и дальний отзвук
                    G5               E5
                Душу твою терзает до слез

Припев:
             A5                  D5
      Жизнь не вернешь  вольному - воля
         G5             E5          A5
      но пред тобой за себя я намерен держать ответ
              A5                D5
      Жизнь не вернешь вольному - воля
       G5                   E5                A5
      C нами их нет самых близких тебе только память 
      в вечерний свет
       
Привкус вины в горьком застолье
A для луны в небе раздолье
ветер сырой сонет в подворье
Вслед за тобой вслед за тобой


Припев.
Важно! Чтобы посмотреть аппликатуру нужного аккорда к песне “Черный кофе – Вольному – воля!“, просто наведите мышку/кликните на сам аккорд.

Видео/Клип на песню “Черный кофе – Вольному – воля!”:

Нажмите на звезду, чтобы оценить!

Средняя оценка 0 / 5. Количество оценок: 0

Оценок пока нет. Поставьте оценку первым.

Подписаться
Уведомление о
guest
0 Комментарий
inline-комментарии
Посмотреть все комментарии
ПОПУЛЯРНЫЕ АККОРДЫ: