Blackbriar – Until Eternity: аккорды для гитары

Текст песни "Blackbriar – Until Eternity" с аккордами для гитары

[Intro]

[Guitar starts at 1:15]
D|----------------------------------------------------------------------------|
A|----------------------------------------------------------------------------|
F|7--5-------------------7--5-------------------7--5---------------------7----|
C|-----8--7--8--7--8--5-------8--7--8--7--8--5-------8--7--8--7--8--5-------7-|
G|----------------------------------------------------------------------------|
C|----------------------------------------------------------------------------|


D|----------------------------------------------------------------------------|
A|----------------------------------------------------------------------------|
F|7--5-------------------7--5-------------------7--5--------------------10----|
C|-----8--7--8--7--8--5-------8--7--8--7--8--5-------8--7--8--7--8--5-------9-|
G|----------------------------------------------------------------------------|
C|----------------------------------------------------------------------------|


D|----------------------------------------------------------------------------|
A|----------------------------------------------------------------------------|
F|7--5-------------------7--5-------------------7--5--------------------7-----|
C|-----8--7--8--7--8--5-------8--7--8--7--8--5-------8--7--8--7--8--5-------7-|
G|----------------------------------------------------------------------------|
C|----------------------------------------------------------------------------|

D|----------------------------------------------------------------------------|
A|----------------------------------------------------------------------------|
F|7--5-------------------7--5-------------------7--5--------------------10----|
C|-----8--7--8--7--8--5-------8--7--8--7--8--5-------8--7--8--7--8--5-------9-|
G|----------------------------------------------------------------------------|
C|----------------------------------------------------------------------------|




    P.M
Downstrokes
D|----------------------------------------------------------------------------|
A|----------------------------------------------------------------------------|
F|----------------------------------------------------------------------------|
C|----------------------------------------------------------------------------|
G|-0-0-0-0-0-0-0-0-0-0-0-0-5--------------------------------------------------|
C|-0-0-0-0-0-0-0-0-0-0-0-0-5--------------------------------------------------|

  Strumming then fast picking G string
D|-----------------------------------------------------------------------------|
A|-----------------------------------------------------------------------------|
F|-----------------------------------------------------------------------------|
C|-----------------------------------------------------------------------------|
G|--3------5-----7----8----7---------------------------------------------------|
C|--3--------------------------------------------------------------------------|


Strumming then fast pickin
D|----------------------------------------------------------------------------|
A|----------------------------------------------------------------------------|
F|----------------------------------------------------------------------------|
C|--------------5-------------------------------------------------------------|
G|-0-----12-----3---3-----7----7--8--7----------------------------------------|
C|-0-----12---------3-----7---------------------------------------------------|
Важно! Чтобы посмотреть аппликатуру нужного аккорда к песне “Blackbriar – Until Eternity“, просто наведите мышку/кликните на сам аккорд.

Видео/Клип на песню “Blackbriar – Until Eternity”:

Нажмите на звезду, чтобы оценить!

Средняя оценка 0 / 5. Количество оценок: 0

Оценок пока нет. Поставьте оценку первым.

Подписаться
Уведомление о
guest
0 Комментарий
inline-комментарии
Посмотреть все комментарии
ПОПУЛЯРНЫЕ АККОРДЫ: