Би-2 – Как песок сквозь пальцы: аккорды для гитары

0

Текст песни "Би-2 – Как песок сквозь пальцы" с аккордами для гитары

ПОКАЗАТЬ/СКРЫТЬ АККОРДЫ
Эти табуляторы играются в самом начале песни.
E|----1-----|----2------|-----2-------|-----0-1---------|
B|------3---|------3----|-------3-----|---3-----3-------| (2 раза)аза
G|-4------4-|-2------2--|-0-------0---|-3---------3-----|

Мы  ждем  новостей  в условный день и час
Как ручей прольется кровь из
Глаз  не спускать не тушить огни их рана
Сердце раздавит на дне океана

Эти табуляторы играются во время припева.
E|---------------|---------------|---------------|-------------|
B|---------------|---------------|---------------|-------------|
G|---------------|---------------|---------------|-------------|
D|9-9-9-9-9-9-9-9|7-7-7-7-7-7-7-7|5-5-5-5-5-5-5-5|8-8-8-8-8-8-8|
A|9-9-9-9-9-9-9-9|7-7-7-7-7-7-7-7|5-5-5-5-5-5-5-5|8-8-8-8-8-8-8|
E|7-7-7-7-7-7-7-7|5-5-5-5-5-5-5-5|3-3-3-3-3-3-3-3|6-6-6-6-6-6-6|
    Уууууууууууууууууууууууууууу      Как   песок сквозь пальцы

E|---------------|---------------|---------------|-------------|
B|---------------|---------------|---------------|-------------|
G|---------------|---------------|---------------|-------------|
D|9-9-9-9-9-9-9-9|7-7-7-7-7-7-7-7|5-5-5-5-5-5-5-5|8-8-8-8-8-8-8|
A|9-9-9-9-9-9-9-9|7-7-7-7-7-7-7-7|5-5-5-5-5-5-5-5|8-8-8-8-8-8-8|
E|7-7-7-7-7-7-7-7|5-5-5-5-5-5-5-5|3-3-3-3-3-3-3-3|6-6-6-6-6-6-6|
   Уууууууууууууууууууууууууууууу      Что же     будет  дальше

E|---------------|---------------|---------------|-------------|
B|---------------|---------------|---------------|-------------|
G|---------------|---------------|---------------|-------------|
D|9-9-9-9-9-9-9-9|7-7-7-7-7-7-7-7|5-5-5-5-5-5-5-5|8-8-8-8-8-8-8|
A|9-9-9-9-9-9-9-9|7-7-7-7-7-7-7-7|5-5-5-5-5-5-5-5|8-8-8-8-8-8-8|
E|7-7-7-7-7-7-7-7|5-5-5-5-5-5-5-5|3-3-3-3-3-3-3-3|6-6-6-6-6-6-6|
   Ууууууууууууууууууууууууууууууу       Слов    немая    стая

E|---------------|---------------|---------------|-------------|
B|---------------|---------------|---------------|-------------|
G|---------------|---------------|---------------|-------------|
D|9-9-9-9-9-9-9-9|7-7-7-7-7-7-7-7|5-5-5-5-5-5-5-5|8-8-8-8-8-8-8|
A|9-9-9-9-9-9-9-9|7-7-7-7-7-7-7-7|5-5-5-5-5-5-5-5|8-8-8-8-8-8-8|
E|7-7-7-7-7-7-7-7|5-5-5-5-5-5-5-5|3-3-3-3-3-3-3-3|6-6-6-6-6-6-6|
   Ууууууууууууууууууууууууууууууу       Просто     исчезает

Ждать перемен в удобный случай нам
Выбор Бок Мэн иди и слушай
Как тонет сердце на дне чужих историй
Падает с неба  звезда и гаснет море

Уууууууууууууу  Как песок сквозь пальцы
Уууууууууууууу  Что же будет дальше
Уууууууууууууу   Слов немая стая
Уууууууууууууу   Просто исчезает

Гитара 1
E|---------------|---------------|---------------|-------------|
B|---------------|---------------|---------------|-------------|
G|---------------|---------------|---------------|-------------|
D|9-9-9-9-9-9-9-9|7-7-7-7-7-7-7-7|5-5-5-5-5-5-5-5|8-8-8-8-8-8-8|
A|9-9-9-9-9-9-9-9|7-7-7-7-7-7-7-7|5-5-5-5-5-5-5-5|8-8-8-8-8-8-8|
E|7-7-7-7-7-7-7-7|5-5-5-5-5-5-5-5|3-3-3-3-3-3-3-3|6-6-6-6-6-6-6|

Гитара 2
E|----1----------|------2--------|-----2---------|-----0-1-----|
B|--------3------|---------3-----|--------3------|---3-----3---|
G|-4-----------4-|-2----------2--|-0---------0---|-3---------3-|

Уууууууууууууу  Как песок сквозь пальцы
Уууууууууууууу  Что же будет дальше
Уууууууууууууу   Слов немая стая
Уууууууууууууу   Просто исчезает

И в конце те же табуляторы что и в начале
E|----1-----|----2------|-----2-------|-----0-1---------|
B|------3---|------3----|-------3-----|---3-----3-------| (2 раза)аза
G|-4------4-|-2------2--|-0-------0---|-3---------3-----|
Важно! Чтобы посмотреть аппликатуру нужного аккорда к песне “Би-2 – Как песок сквозь пальцы“, просто наведите мышку/кликните на сам аккорд.

Видео/Клип на песню “Би-2 – Как песок сквозь пальцы”:

Нажмите на звезду, чтобы оценить!

Средняя оценка / 5. Количество оценок:

Оценок пока нет. Поставьте оценку первым.

Подписаться
Уведомление о
guest
0 Комментарий
inline-комментарии
Посмотреть все комментарии