Бетховен – К Элизе: аккорды для гитары

0

Текст песни "Бетховен – К Элизе" с аккордами для гитары

ПОКАЗАТЬ/СКРЫТЬ АККОРДЫ
Am            Am
e|-0---0---0---------------------------------------|
B|---4---4---0-3-1-------------0---------0-1-------|
G|-----------------2---------2-----1---1-----------|
D|-------------------2-----2-----2---2-------2---2-|
A|-----------------0---0-3-----------------0---0---|
E|-----------------------------0-------------------|

                 E7    Am
e|-0---0---0-------------------------------------|
B|---4---4---0-3-1-------------0-------1-0-------|
G|-----------------2---------2-----1-------2-----|
D|-------------------2-----2-----2---0-----------|
A|-----------------0---0-3-----------------0---0-|
E|-----------------------------0-------------0---|

                 Am            Am
e|-0---0---0---------------------------------------|
B|---4---4---0-3-1-------------0---------0-1-------|
G|-----------------2---------2-----1---1-----------|
D|-------------------2-----2-----2---2-------2---2-|
A|-----------------0---0-3-----------------0---0---|
E|-----------------------------0-------------------|
                 E7    Am
e|-0---0---0---------------------------------------|
B|---4---4---0-3-1-------------0-------1-0-------0-|
G|-----------------2---------2-----1-------2-------|
D|-------------------2-----2-----2---0-------------|
A|-----------------0---0-3-----------------3---0---|
E|-----------------------------0-------------0-----|

e|-----0-------1-0---------0--------------------0-|
B|-1-3-----1-------3---0-----3-1-------3-1-0------|
G|-------0---0-------0-------------2--------------|
D|-----------------------3-------2---2--------2---|
A|-----3-----------------------0------------------|
E|-----------------3-----------------------0------|

E|------0---0-------------|
B|------------------------|
G|------------------------|
D|--2-2---2---1-2-1-2-1-2-|
A|------------------------|
E|-0----------------------|

                 Am            Am
e|-0---0---0---------------------------------------|
B|---4---4---0-3-1-------------0---------0-1-------|
G|-----------------2---------2-----1---1-----------|
D|-------------------2-----2-----2---2-------2---2-|
A|-----------------0---0-3-----------------0---0---|
E|-----------------------------0-------------------|

                 E7    Am
e|-0---0---0-------------------------------------|
B|---4---4---0-3-1-------------0-------1-0-------|
G|-----------------2---------2-----1-------2-----|
D|-------------------2-----2-----2---0-----------|
A|-----------------0---0-3-----------------3---0-|
E|-----------------------------0-------------0---|
Важно! Чтобы посмотреть аппликатуру нужного аккорда к песне “Бетховен – К Элизе“, просто наведите мышку/кликните на сам аккорд.

Видео/Клип на песню “Бетховен – К Элизе”:

Нажмите на звезду, чтобы оценить!

Средняя оценка / 5. Количество оценок:

Оценок пока нет. Поставьте оценку первым.

Подписаться
Уведомление о
guest
0 Комментарий
inline-комментарии
Посмотреть все комментарии