АукцЫон – Дорога: аккорды для гитары

0

Текст песни "АукцЫон – Дорога" с аккордами для гитары

ПОКАЗАТЬ/СКРЫТЬ АККОРДЫ
РИТМ:

E|---------------------------|
B|---------------------------|
G|---------------------------|
D|---------------------------|
A|--2-2-2-2----2-2-2-2-2-x-x-|
E|--0-0-3-0----0-3-0-3-0-5-3-|

СОЛО:

E|--7---5---3---0---------------------|
B|--------------------3--5--3-5-3-5-3-|
G|------------------------------------|
D|------------------------------------|
A|------------------------------------|
E|------------------------------------|

   Em                   Am
Я сам себе и небо, и луна,
 Am       B7        Em
Голая, довольная луна,
 Em       Am         B7    Em
Долгая дорога, да и то не моя.

A|-2-2-2-2----2-2-2-2-2-x-x-|
E|-0-0-3-0----0-3-0-3-0-5-3-|

За мною зажигали города,
Глупые, чужие города,
Там меня любили, только это не я.
Bm C Am    B7
О--о-о, зона!
Bm       C
Ожидает напряженно
 Am      B7
Родниковая.
Я сам себе и небо и луна,
Голая, довольная луна,
Долгая дорога бескайфовая.

Меня держала за ноги земля,
Голая тяжелая земля,
Медленно любила пережевывая.
И пылью улетала в облака,
Крыльями метала облака
Долгая дорога бескайфовая.
О, зона!
Ожидает напряженно,
Беспросветная.
Я сам себе и небо, и луна,
Голая, довольная луна,
Я летаю где-то, только это не я.
Важно! Чтобы посмотреть аппликатуру нужного аккорда к песне “АукцЫон – Дорога“, просто наведите мышку/кликните на сам аккорд.

Видео/Клип на песню “АукцЫон – Дорога”:

Нажмите на звезду, чтобы оценить!

Средняя оценка / 5. Количество оценок:

Оценок пока нет. Поставьте оценку первым.

Подписаться
Уведомление о
guest
0 Комментарий
inline-комментарии
Посмотреть все комментарии