Александр Казлитин – Не удержаться: аккорды для гитары

Текст песни "Александр Казлитин – Не удержаться" с аккордами для гитары

Dm G
1. Задержка дыхания целуй на прощание
Am F
И дай им телефон, где нас нет.

Последним касанием проверить раскаянье
Ну что ты будешь делать и с кем

Dm G
Довериться запахам, раскинуться веером

Бас: Am F
D|----2-0----------2--0-2-0--0-------|
A|-----------3-0----------------3--0-|
И взглядом своим выключить свет.

Припев:

Бас: Dm 
D|------2-0----2----|
A|-0-3------------0-|
Не разрывать шелка, G
D|-2---0------0---2---|
A|----------3---------|
E|------------------3-|
Греться в твоих руках Am F
D|-2-0-------0--2---|
A|-------3--------0-|
Падать на дно морей. Dm
D|--------2-0----2---|
A|-0---3-----------0-|
Сбиться на пол пути G
D|-2---0------0--2----|
A|--------3-----------|
E|------------------3-|
Там где нас не найти Am F
D|-2-0---0---2-|
A|-----3-------|
Не удержаться.

2. Коснуться ресницами, нарушить границы
И не доедая завтрак курить

Могу для тебя сейчас включить твой любимый джаз
И просто встать посуду помыть

А хочешь я запросто уйду в кругосветное
И буду каждый вечер звонить.

Припев: (2 раза) Dm
D-----2-0----2----|
A-0-3------------0-|
Не разрывать шелка, G
D-2---0------0---2---|
A----------3---------|
E------------------3-|
Греться в твоих руках Am F
D|-2-0-------0--2---|
A|-------3--------0-|
Падать на дно морей. Dm
D|--------2-0----2---|
A|-0---3-----------0-|
Сбиться на пол пути G
D|-2---0------0--2----|
A|--------3-----------|
E|------------------3-|
Там где нас не найти Am F
D|-2-0---0---2-|
A|-----3-------|
Не удержаться.

Проигрыш:

Dm G Am F Dm G Am F

Solo: Dm G Am F
E|-----0---0---0-------0---0-------0-|
H|---1---3-------3-1-3-------3-1-3---|
G|-2---------2-----------0-----------| Dm G Am F
E|-----0---0---0-------0---0-0------0-|
H|---1---3-------3-1-3---------3-1-3--|
G|-2---------2-----------0------------|
Важно! Чтобы посмотреть аппликатуру нужного аккорда к песне “Александр Казлитин – Не удержаться“, просто наведите мышку/кликните на сам аккорд.

Видео/Клип на песню “Александр Казлитин – Не удержаться”:

Нажмите на звезду, чтобы оценить!

Средняя оценка 0 / 5. Количество оценок: 0

Оценок пока нет. Поставьте оценку первым.

Подписаться
Уведомление о
guest
0 Комментарий
inline-комментарии
Посмотреть все комментарии
ПОПУЛЯРНЫЕ АККОРДЫ: